S.L. Magic Bass tab [Page 1 of 1]

S.L. Magic Bass tab
Posted on Fri May 21, 2010 2:26 pm


SourChicken

Shiroten Performer
Shiroten Performer
http://www.youtube.com/user/Bassection
You thanked this post! -
Thanks received by this post:

Message reputation : 100% (1 vote)

Made a couple of mistakes that I didn't notice until after it was uploaded, and the bass 'solo' isn't exactly what tomomi plays; It's what I thought sounded good.
http://www.ultimate-guitar.com/tabs/s/scandal/sl_magic_btab.htm
Code:
(Guitar Intro)

0:22
|--------------------------------------------|
|--------------------------------------------|
|----------------3(x16)----------------------|
|--3(x16)-7(x16)--------5(x7)--8(x3)-10(x4)--|

|-------------------------------------|
|-------------------------------------|
|----------------3(x7)----------------|
|--3(x16)-7(x16)-------5(x8)-10(x16)--|

0:44
|-------------55----------------------------------|
|-----------5----77-55---------------55-----------|
|--33-55-77------------77----22-55-7----77-55-----|
|-------------------------33------------------77--|

|-------------55---------------------------------------|
|-----------5----77-55----------------12-10-9--10-9-7--|
|--33-55-77------------77-55-77-99-10------------------|
|------------------------------------------------------|

|-------------55----------------------------------|
|-----------5----77-55---------------55-----------|
|--33-55-77------------77----22-55-7----77-55-----|
|-------------------------33------------------77--|

|-------------55------------------------|
|-----------5----77-55----------12(x7)--|
|--33-55-77------------77-5(x5)---------|
|---------------------------------------|

1:06
|--------------------------------------------|
|--------------------------------------------|
|----------------3(x16)----------------------|
|--3(x16)-7(x16)--------5(x7)--8(x3)-10(x4)--|

|--------------------------|
|--------------------------|
|----------------3(x16)----|
|--3(x16)-7(x16)--------3--|

|-------------------------------------------------|
|-------------------------------------------------|
|---------------1-----------------1---------------|
|--3313-313-313--313-3313-313-313--313-3313-3133--|

|--------------------------------------------|
|--------------------------------------------|
|----------------3(x16)----------------------|
|--3(x16)-7(x16)--------5(x7)--8(x3)-10(x4)--|

|-------------------------------------------------------|
|-------------------------------------------------------|
|-----------------------------------3(x7)---------------|
|--33-33-33-33-3-3\77-77-77-77-7-7-------5(x8)-10(x16)--|

1:58
|-------------55----------------------------------|
|-----------5----77-55---------------55-----------|
|--33-55-77------------77----22-55-7----77-55-----|
|-------------------------33------------------77--|

|-------------55------------------------|
|-----------5----77-55----------12(x9)--|
|--33-55-77------------77-5(x5)---------|
|---------------------------------------|

|--------------------------------------------|
|--------------------------------------------|
|----------------3(x16)----------------------|
|--3(x16)-7(x16)--------5(x7)--8(x3)-10(x4)--|

|------------------------|
|------------------------|
|----------------3(x16)--|
|--3(x16)-7(x16)---------|

2:30
|----------------------------------------------|
|----------------------------------------------|
|-----------23-5----------23-20----------23-5--|
|--33-33-33------33-33-33-------33-33-33-------|

|-------------------------------79-45-242-020-0----|
|---------------4--55-55-55-5679---------------57--|
|-----------23-5-----------------------------------|
|--33-33-33----------------------------------------|

|-------------------------------|
|--55-55-55---------------------|
|-----------77-55-33------------|
|-------------------2-33-33-33--|

3:04
|-----------------------------------|
|-----------------------------------|
|-----------------------------------|
|--33-33-33-33-3-3\77-77-77-77-7-7--|

|--------------------------------------------|
|--------------------------------------------|
|--33-33-33-33-3-3-55-55-55-55-5-5-55-55-55--|
|--------------------------------------------|

|--------------------------------------------|
|--------------------------------------------|
|----------------3(x16)----------------------|
|--3(x16)-7(x16)--------5(x7)--8(x3)-10(x4)--|

|-------------------------------------|
|-------------------------------------|
|----------------3(x16)---------------|
|--3(x16)-7(x16)--------3(x7)\10(x6)--|

|--------------------------------------------|
|--------------------------------------------|
|----------------3(x16)----------------------|
|--3(x16)-7(x16)--------5(x7)--8(x3)-10(x4)--|

|---------------------------------|
|---------------------------------|
|----------------3(x16)-----------|
|--3(x16)-7(x16)--------33-33-33--|

Back to top Go down

Re: S.L. Magic Bass tab
Posted on Sat Jul 10, 2010 2:22 am


MadOrange

Shiroten Performer
Shiroten Performer
i love this song! arigatou!

Back to top Go down

Re: S.L. Magic Bass tab
Posted on Tue Aug 24, 2010 4:36 am


asuna

Indie Artist
Indie Artist
http://thebudgetgeek.blogspot.com
hey sourchicken, i managed to figure out an easier fingering for the running prechoruses and also tomo's "solo", take a look :D

Code:

(paste in notepad)

Prechorus
|-----------2-55-22-------------------------------|
|-----22-55---------55-------------2-55-22--------|
|--33------------------22----22-55---------55-22--|
|-------------------------33----------------------|

|-----------2-55-22----------------4--5/7-5-4-5--------|
|-----22-55---------55-22----44-77------------------7--|
|--33---------------------55---------------------------|
|------------------------------------------------------|

|-----------2-55-22-------------------------------|
|-----22-55---------55-------------2-55-22--------|
|--33------------------22----22-55---------55-22--|
|-------------------------33----------------------|


|-----------2-55-22---------------------|
|-----22-55---------55-77-------12(x7)--|
|--33---------------------5(x5)---------|
|---------------------------------------|

Tomo's "solo"
|----------------------------------------------|
|----------------------------------------------|
|-----------23-5----------23-20----------23-5--|
|--33-33-33------33-33-33-------33-33-33-------|

|-----------------------------45797-55-44---------------|
|---------------4--55-55-55-57------------77-55---------|
|-----------23-5--------------------------------77-55---|
|--33-33-33---------------------------------------------|

|-------------------------------------|
|--55-55-55-/1414-1212-1010-----------|
|-------------------------------------|
|---------------------------33-33-33--|


hope this helps!


_________________________________________________________________________________________________
http://thebudgetgeek.blogspot.com
Back to top Go down

Re: S.L. Magic Bass tab
Posted on Thu Aug 26, 2010 10:18 am


haruchan

Caless Student
Caless Student
http://ainoro.livejournal.com
using this one to play ♫
thank you so much 8D

LOVE

Back to top Go down

Re: S.L. Magic Bass tab
Posted on Thu Jan 13, 2011 6:17 am


MadOrange

Shiroten Performer
Shiroten Performer
asuna~arigatou~! i think that might help~!YOSH~!!! i'll try it~! Nice One


_________________________________________________________________________________________________

                                                                                                                                            otakumi
Back to top Go down

Re: S.L. Magic Bass tab
Posted on Thu Mar 10, 2011 5:35 am


chen

Caless Student
Caless Student
Wow! thanks Asuna and SourChicken.. Happy now I can play SL MAGIC!!
Thanks a lot!! Happy


_________________________________________________________________________________________________
♣¤═════¤۩۞۩ஜஜ۩۞۩¤═════¤♣
     |]▓▓║_____ SCANDAL _____║▓▓ [|  
♣¤═════¤۩۞۩ஜஜ۩۞۩¤═════¤♣
Back to top Go down