Departure Chords [Page 1 of 1]

Departure Chords
Posted on Sat Mar 29, 2014 1:27 pm


NeloAngelo

Caless Student
Caless Student
You thanked this post! -
Thanks received by this post:

Message reputation : 100% (2 votes)

Here's my take on their to be release new single, Departure. I used the video they posted here as reference. This is only Haruna's part, I'll try tabbing Mami's if I find enough time. Do forgive my mistakes if you think it's not too accurate.  Happy 

Update: Adding Mami's Intro/Outro:
Intro/Outro (Paste in Notepad):

Intro/Outro:
e |-15-14-12-10-X--X-----X-X--X--X--X--X-X--|
B |-X--X--X--X--10-8/15--8-10-13-12-10-8-8--| 2x
G |-12-11-9--7--X--X-----X-X--X--X--X--X-X--|
D |-X--X--X--X--7--5/12--5-7--10-9--7--5-5--|
A |-X--X--X--X--X--X-----X-X--X--X--X--X-X--|
E |-X--X--X--X--X--X-----X-X--X--X--X--X-X--|

Intro:
CM7-Bm-Am,D-Em
CM7-Bm-Am,D-Em

Verse1:
CM7-Bm-Am,D-Em
CM7-Bm-Am,D-Em
CM7-Bm-Am,D-Em
CM7-Bm-Am,D-Em

Bridge1:
CM7-D-Ebm-E
CM7-D-Bm

Chrorus1:
CM7-Bm-D-Em
CM7-D-Ebm-E
CM7-D-Bm-C
CM7-D-Ebm-E-CM7

CM7-Bm-Am,D-Em
CM7-Bm-Am,D-Em

Verse2:
CM7-Bm-Am,D-Em
CM7-Bm-Am,D-Em

2014-04-06 Update: Adding Mami's Verse2 Tab (tabbed by ear)
Verse2 Tab(Mami):

e |-77-7h8h9h10-7--77-7h8h9h10-7--77-7h8h9h10-7--1010-10h11h12p10-10-|
B |-77-7h8h9h10-7--77-7h8h9h10-7--77-7h8h9h10-7--1010-10h11h12p10-10-|
G |------------------------------------------------------------------|
D |------------------------------------------------------------------|
A |------------------------------------------------------------------|
E |------------------------------------------------------------------|

Bridge2:
CM7-D-Ebm-E
CM7-D-Bm

Chrorus2:
CM7-D-Bm-C
CM7-D-Ebm-E
CM7-D-Bm-C
CM7-D-Ebm-E

Intstrumental:
Em-Bm-G--
Em-Bm-G--

Bridge3:
CM7-D-Ebm-E
CM7-D-Bm-
(Together with the bass)
G |------------------|
D |-------7-9-7------|
A |-2-6-9-------9----|
E |---------------7~-|

Chrorus3:
CM7-Bm-D-Em
CM7-D-Ebm-E
CM7-Bm-D-Em
CM7-D-Ebm-E-CM7--

Outro:
CM7-Bm-Am,D-Em
CM7-Bm-Am,D-Em
CM7

*long dashes indicate playing the chord longer than the usual tempo
*comma(,) separated chords mean they are switched faster than usual tempo

*If It'll help, here's a tab version of the cords. This is how I play them, some chords are played as power chord, some are not. You might need to post these on Notepad.
*Note that strumming pattern is not included so you'll notice there aren't any repeated tabs per set
Chords in tab format (Paste in Notepad):

Intro:
e  |-0--2--0-2-0-|
B  |-0--3--1-3-0-|
G  |-0--4--2-2-0-| 2x
D  |-2--4--2-0-2-|
A  |-3--2--0-X-2-|
E  |-0--X--X-X-0-|

Verse1:
e |-0--2--0-2-0-|
B |-0--3--1-3-0-|
G |-0--4--2-2-0-| 4x
D |-2--4--2-0-2-|
A |-3--2--0-X-2-|
E |-0--X--X-X-0-|

Bridge1:
e |-0--X-X-X--0--2-2--|
B |-0--X-7-X--0--3-3--|
G |-0--7-8-9--0--2-4--|
D |-2--7-8-9--2--0-4--|
A |-3--5-6-7--3--X-2--|
E |-0--X-X-X--0--X-0--|

chorus1:
e |-0-2-X-0--0-X-X-X-|
B |-0-3-X-0--0-X-7-X-|
G |-0-4-7-0--0-7-8-9-|
D |-2-4-7-2--2-7-8-9-|
A |-3-2-5-2--3-5-6-7-|
E |-0-X-X-0--0-X-X-X-|

e |-0-2-2-X--0-X-X-X-0--|
B |-0-3-3-X--0-X-7-X-0--|
G |-0-2-4-5--0-7-8-9-0--|
D |-2-0-4-5--2-7-8-9-2--|
A |-3-X-2-3--3-5-6-7-3--|
E |-0-X-X-X--0-X-X-X-0--|

e |-0--2--0-2-0-|
B |-0--3--1-3-0-|
G |-0--4--2-2-0-| 2x
D |-2--4--2-0-2-|
A |-3--2--0-X-2-|
E |-0--X--X-X-0-|

Verse2:
e |-0--2--0-2-0-|
B |-0--3--1-3-0-|
G |-0--4--2-2-0-| 2x
D |-2--4--2-0-2-|
A |-3--2--0-X-2-|
E |-0--X--X-X-0-|

Bridge2:
e |-0--X-X-X--0--2-2--|
B |-0--X-7-X--0--3-3--|
G |-0--7-8-9--0--2-4--|
D |-2--7-8-9--2--0-4--|
A |-3--5-6-7--3--X-2--|
E |-0--X-X-X--0--X-0--|

Chorus2:
e |-0-2-2-X--0-X-X-X-|
B |-0-3-3-X--0-X-7-X-|
G |-0-2-4-5--0-7-8-9-|
D |-2-0-4-5--2-7-8-9-|
A |-3-X-2-3--3-5-6-7-|
E |-0-X-X-X--0-X-X-X-|

e |-0-2-2-X--0-X-X-X-|
B |-0-3-3-X--0-X-7-X-|
G |-0-2-4-5--0-7-8-9-|
D |-2-0-4-5--2-7-8-9-|
A |-3-X-2-3--3-5-6-7-|
E |-0-X-X-X--0-X-X-X-|

Instrumental:
e |-0-2-3--0-2-3-|
B |-0-3-3--0-3-3-|
G |-0-4-0--0-4-0-|
D |-2-4-0--2-4-0-|
A |-2-2-2--2-2-2-|
E |-0-X-3--0-X-3-|

Bridge3:
e |-0--X-X-X--0-2-2--|------------------|
B |-0--X-7-X--0-3-3--|------------------|
G |-0--7-8-9--0-2-4--|------------------|
D |-2--7-8-9--2-0-4--|-------7-9-7------|
A |-3--5-6-7--3-X-2--|-2-6-9-------9----|
E |-0--X-X-X--0-X-X--|---------------7~-|

Chorus3:
e |-0-2-X-0--0-X-X-X-|
B |-0-3-X-0--0-X-7-X-|
G |-0-4-7-0--0-7-8-9-|
D |-2-4-7-2--2-7-8-9-|
A |-3-2-5-2--3-5-6-7-|
E |-0-X-X-0--0-X-X-X-|

e |-0-2-X-0--0-X-X-X-0-|
B |-0-3-X-0--0-X-7-X-0-|
G |-0-4-7-0--0-7-8-9-0-|
D |-2-4-7-2--2-7-8-9-2-|
A |-3-2-5-2--3-5-6-7-3-|
E |-0-X-X-0--0-X-X-X-0-|

Outro:
e |-0--2--0-2-0-|
B |-0--3--1-3-0-|
G |-0--4--2-2-0-|
D |-2--4--2-0-2-|
A |-3--2--0-X-2-|
E |-0--X--X-X-0-|

e |-0--2--0-2-0-0-|
B |-0--3--1-3-0-0-|
G |-0--4--2-2-0-0-|
D |-2--4--2-0-2-2-|
A |-3--2--0-X-2-3-|
E |-0--X--X-X-0-0-|

2014-04-01 Update: Adding Mamitachu's version of Mami's short solo
SHORT SOLO:

e |----------------15-(Mami just kept strumming here --------17--19-|
B |-12r-10-----15----- the B and e string on the 15th fret)--15--15-|
G |--------12-------------------------------------------------------|
D |-----------------------------------------------------------------|
A |-----------------------------------------------------------------|
E |-----------------------------------------------------------------|

2014-04-17 Update: Adding Guitar pro and PDF file links compiled by Sero
GP5 and PDF Links:

Guitar pro: https://www.mediafire.com/?0qt3apb79gzpodj
PDF: https://www.mediafire.com/?wsb6k1i0mtvruah



Last edited by NeloAngelo on Sun Jul 06, 2014 6:53 am; edited 11 times in total

Back to top Go down

Re: Departure Chords
Posted on Sat Mar 29, 2014 2:57 pm


Mitchan

International Performer
International Performer
http://www.wattpad.com/user/MitchanAnni
OMG So fast!!! OMG 
Thank you so much~! I'll try them immediately!


_________________________________________________________________________________________________

                 Tears of Joy
Back to top Go down

Re: Departure Chords
Posted on Sun Mar 30, 2014 6:13 pm


M

Mainstream Artist
Mainstream Artist
You thanked this post! -
Thanks received by this post:

Message reputation : 100% (1 vote)

I hope you don't mind if I add this up Happy
Here is for the short solo (I'm not sure though cos it's just by ear)
Short solo:

e|---------------------15-(Mami just kept strumming here       -----17----19|
B|-12r--10--------15----- the B and e string on the 15th fret)-----15-----15|
G|-----------12-------------------------------------------------------------------|
D<---------------------------------------------------------------------------------|
A|---------------------------------------------------------------------------------|
E|---------------------------------------------------------------------------------|

Back to top Go down

Re: Departure Chords
Posted on Mon Mar 31, 2014 3:00 am


chaii

Caless Student
Caless Student
.how about Mami's part on 2nd verse ?

I really love that part

Back to top Go down

Re: Departure Chords
Posted on Tue Apr 01, 2014 12:07 pm


NeloAngelo

Caless Student
Caless Student
@Mamitachu
Sure thing. I'll put it up so everyone can easily see. Sadly, I don't have the effects to mimic how Mami makes it sound so I can't really verify it's accuracy. But, I'm grateful for adding this part! 

@chaii
I love that part too!!! (Well I generally love the whole song. haha!)
I'll try tabbing that part over the weekend.

Back to top Go down

Re: Departure Chords
Posted on Mon Apr 14, 2014 1:03 am


Sero

Caless Student
Caless Student
I tried tabbing out Mami's part and putting everything together.  Wew  It most likely has mistakes though. The bass+vocals are from muya's thread and Haruna's part from here. 

Guitar pro: https://www.mediafire.com/?0qt3apb79gzpodj
PDF: https://www.mediafire.com/?wsb6k1i0mtvruah

Back to top Go down

Re: Departure Chords
Posted on Thu Apr 17, 2014 9:09 am


NeloAngelo

Caless Student
Caless Student
@Sero

Wow, kudos for the effort on those. I'll put those links up too! Arigato! 
Nice One

Back to top Go down

Re: Departure Chords
Posted on Thu Apr 17, 2014 9:17 am


Mitchan

International Performer
International Performer
http://www.wattpad.com/user/MitchanAnni
Thank you guys~!! Tabs are awesome! They are excellent!! Love


_________________________________________________________________________________________________

                 Tears of Joy
Back to top Go down

Re: Departure Chords
Posted on Fri Apr 18, 2014 4:24 pm


stargayzer

Caless Student
Caless Student
I cant open the gp5 files using Guitar pro 6.omg. 
Would you guys mind reuploading?

Back to top Go down

Re: Departure Chords
Posted on Mon Apr 28, 2014 3:50 pm


boobooli

Caless Student
Caless Student
thank you
this gtp help me a lot
thank for sharing

Back to top Go down

Re: Departure Chords
Posted on Fri May 02, 2014 5:48 am


paprica

Caless Student
Caless Student
Thanks for the chords Praise  
i like the intro of the song

Back to top Go down

Re: Departure Chords
Posted on Tue Jun 17, 2014 5:37 am


akarisuzuki26

Caless Student
Caless Student
http://www.wattpad.com/IamJealoussGirl
Thank you for this chords.. It's helps me much.. xoxo

Back to top Go down

Re: Departure Chords
Posted on Tue Jul 22, 2014 9:51 am


Mitchan

International Performer
International Performer
http://www.wattpad.com/user/MitchanAnni
I was looking at Haruna in the PV and found out the intro, i guess it's more right:

Bm - D - Am -D -G (x4) will be for the Verse and intro.


_________________________________________________________________________________________________

                 Tears of Joy
Back to top Go down

Re: Departure Chords
Posted on Wed Jul 23, 2014 8:45 am


Adidiey

Indie Artist
Indie Artist
LOVE  amazing


_________________________________________________________________________________________________
Facebook : Adi Gervacio


credits to kaitoKid for the userbar
Back to top Go down

Re: Departure Chords
Posted on Sat Aug 23, 2014 11:08 am


itsmishy

Caless Student
Caless Student
Thank you for posting!!!

It really sound good. I'll try making it nicer... and execute properly! 

Thank you! Please  Please  Please

Back to top Go down

Re: Departure Chords
Posted on Wed Feb 25, 2015 7:34 pm


ryoseki kun

Mainstream Artist
Mainstream Artist
https://www.tumblr.com/blog/jeyzombie
Thanks for this! I couldn't copy the other tabs coz I'm on mobile but I think this is a big help already... I'll try this later when I get home Nice One


_________________________________________________________________________________________________

あなたは私があなたの生活の中で必要ないことを私に言っている必要があります...
Back to top Go down