SAKURA goodbye Chords [Page 2 of 2]

Re: SAKURA goodbye Chords
Posted on Fri Aug 16, 2013 1:35 pm


M

Mainstream Artist
Mainstream Artist
is this somehow like the tab? 
--------------------------------
--9--11--9-----------8-9-8-----
--10--10-10---(2x)---8-8-8-(2x)
--------------------------------
--------------------------------
--------------------------------
I'm sorry if it's wrong ._. just having difficulties with x131010xx


_________________________________________________________________________________________________
Back to top Go down

Re: SAKURA goodbye Chords
Posted on Fri Aug 16, 2013 1:59 pm


tsunvun86

Indie Artist
Indie Artist
http://tsunvun86.wordpress.com/
Code:

Intro:
------------------------
-10-10-13-10-11-10-10---
-10-10-10-10-10-10-12---
------------------------
------------------------
------------------------

-----------------------      ----
-10--10-13-10-11-10-10-      -10-
-10--10-10-10-10-10-12-      -10-
-----------------------(x15) ----
-----------------------      ----
-----------------------      ----

Instrumental:
------------------------
-10-10-13-10-11-10-10---
-10-10-10-10-10-10-12---
------------------------
------------------------
------------------------

-----------------------     ----
-10--10-13-10-11-10-10-     -10-
-10--10-10-10-10-10-12-     -10-
-----------------------(x8) ----
-----------------------     ----
-----------------------     ----


_________________________________________________________________________________________________
Back to top Go down

Re: SAKURA goodbye Chords
Posted on Fri Aug 23, 2013 1:13 pm


akaisuko

Caless Student
Caless Student
Hey tsunvun86 :D. I see you everywhere on the internet stress. But glad to see you on this forum. I'm new here but i've seen you before. i think it on your blog. Anyway thanks for the chords. Keep your skill up!

Yoroshiku Onegaishimasu UHUH!


_________________________________________________________________________________________________
Back to top Go down

Re: SAKURA goodbye Chords
Posted on Sun Aug 25, 2013 1:24 pm


fernandozico

Caless Student
Caless Student
http:// shenaigan.web.id
woohoooo thank you Nice One

Back to top Go down