POKÉMON IERU KA NA? simple guitar tablature
Posted on Sat Aug 09, 2014 6:29 am


kudo_maharizu

Mainstream Artist
Mainstream Artist
http://stomachofchaos.com
I was asked if I had the tabs to this off-kilter cover by SCANDAL. Here are the tabs as I played it - kinda simple I'm afraid. Thus far, I've not seen one on S-H, nor have I seen it in any of the recent issues of GiGS or GGG.


INTRO

E---------------------------------
B---------------------------------
G--------------12----------------
D----13--13-------15----13-----
A---------------------------------
E---------------------------------
(twice)

E---------------------------------
B---------------------------------
G--------------13----------------
D----14--14-------16----14-----
A---------------------------------
E---------------------------------

E----------------------------------
B----------------------------------
G---------8--10------8--10-------
D----10--8--10--10--8--10--10-
A----10-----------10----------10-
E----------------------------------

MAIN VERSE
C5 A5
C5 A5
Ab5 G5

C5 A5
C5 A5
F#5

E---------------------------------------------
B---------------------------------------------
G----12-12---10--10---9-9--7-7--5(ph)---
D---------------------------------------------
A---------------------------------------------
E---------------------------------------------

Repeat above
except at the last bit:


E---------------------------------------------
B---------------------------------------------
G----12-12---10--10---9-9--7-7-----------
D---------------------------------------------
A---------------------------------------------
E---------------------------------------------

CHORUS:

E---------------------------------
B----5b6-------3--3------5b6---
G-5--------0---3--3---5---------
D-----------0---------------------
A---------------------------------
E---------------------------------

Repeat the above phrase as per chorus with the last phrase ending with C5.

Repeat the entire verse/chorus for the second segment of the song. There is no guitar note at the end of this second bit but I just played the 5th string (A) on the 5th fret.

For the rap bit, it's basically MAMI on the wah playing a Cm chord. For the cover, I embellished it by playing blues scale on C.

SOLO

E----18b20------------------------18---15-
B---------------------15---16-----18---15-
G-------------17-----15---15---------------
D-------------17-----------------------------
A---------------------------------------------
E---------------------------------------------

Back to the Cm/C blues scale wah bit.

And the CHORUS.

Tap on the 4th fret of the 5th string (D string) before doing the VERSE chords

C#5 (the only time this chord is played prior to the rest of the verse)
C5 A5
C5 A5
Ab5 G5

C5 A5
C5 A5
F#5

E---------------------------------------------
B---------------------------------------------
G----12-12---10--10---9-9--7-7-----------
D---------------------------------------------
A---------------------------------------------
E---------------------------------------------

And go on to:

E---------------------------------------------
B---------------------------------------------
G----------------------------12-9-----------
D-----5--7--9--5--------10-----------------
A---------------------------------------------
E---------------------------------------------

Repeat the above phrase as per bridge

C5 or if you want you could arpeggiate a Csus2 chord:

E--------------3----------3-------
B-----------------3----------3----
G---------5-----------5----------
D---------------------------------
A----3----------------------------
E----------------------------------

The next VERSE is a little different

C5 A5
C5 A5
F5 Bb5 B5

Back to the CHORUS

And the outro riff is just

Ab5 (4x) Bb5 B5 C5

Back to top Go down

Re: POKÉMON IERU KA NA? simple guitar tablature
Posted on Sat Aug 09, 2014 1:54 pm


Mitchan

International Performer
International Performer
http://www.wattpad.com/user/MitchanAnni
Thank you thank you soo much~! 
I can't learn the lyrics so at least i'll learn how to play it Tongue


_________________________________________________________________________________________________

                 Tears of Joy
Back to top Go down

Re: POKÉMON IERU KA NA? simple guitar tablature
Posted on Sat Aug 09, 2014 3:36 pm


Rafaelo

Shiroten Performer
Shiroten Performer
thank you friend for sharing


_________________________________________________________________________________________________
Back to top Go down

Re: POKÉMON IERU KA NA? simple guitar tablature
Posted on Sun Aug 10, 2014 3:01 pm


Elimathgician

Indie Artist
Indie Artist
Thanks for the cords! :3
This song is so cute, though I can't barely understand the pokémon names they are reciting in the song, because of the pronunciation.


_________________________________________________________________________________________________
 LOVE 
Ogawa Tomomi。Sayashi。Kudo。Tanaka。Sasazaki Mami。
Back to top Go down