Runners High Bass Tab [Page 1 of 1]

Runners High Bass Tab
Posted Yesterday at 12:38 pm


Ryuuseigun_39

Shiroten Performer
Shiroten Performer
You thanked this post! -
Thanks received by this post:

Message reputation : 100% (1 vote)

Hey everyone!
So I was browsing the tabs and chords here and saw that there was no bass tab for good ol' Runners High. So I decided to make one and share it here.
So here it is. Enjoy!
Just copy and paste into notepad.


"Runners High" bass tab
by Ryuuseigun_39

Legend

/ - slide up
\ - slide down
h - hammer on
p - pull off

Intro

G|--------------------------------|
D|-------------------------6-6-9--|
A|-4-4-4-6---6-7---7-9---9--------|
E|--------------------------------|

G|---------------------------------------------------------------|
D|---------------------------------------------------------------|
A|---------------------------------4-4-4-4---4-------------------|
E|-5-5-5-5-5-5-5-5-4-4-4-4-4-4-4-4---------------2---2-2-2-2-2-2-|

G|---------------------------------------------------------------|
D|---------------------------------------------------------------|
A|---------------------/11---11-9-11----4----6-------------------|
E|-5-5-5-5-5-5-5-4--------------------------------0----4---2---0-|

_________________________________________________________________________________________________________
1st Verse

G|----------------|
D|----------------|
A|-2----2--2--2---|
E|----------------|

G|---------------------------------|
D|-----6-6-------------6-6-------2-|
A|-4-4-----4-4-----4-4-----4-2-4---|
E|-------------4-------------------|

G|---------------------------------|
D|---------2-2-------------2---2-4-|
A|-----2-2-----2-2-----2-2---2-----|
E|-0-0-------------0-0-------------|

G|------------------------------------------------------------------|
D|---------4-4-------------4---4-6-7-7------------------------------|
A|-----4-4-----4-4-----4-4---4--------------------------------------|
E|-2-2-------------2-2-----------------5-5-5-5-/14\-7-7-7-7-7-7-7-7-| <<Here you don't have to slide to 14,
just slide up and down the neck real fast.
_________________________________________________________________________________________________________
Pre-Chorus

G|----------------------------------|
D|----------------------------------|
A|----------------------------------|
E|-9\----/7-9\---0--2/7-9\---/7-9\--|

G|----------------------------------------------------|
D|--------------------------------------------------6-|
A|------------------------2-------------------3--6----|
E|-/9----/7-9\---0--2--2-------------------4----------|

_________________________________________________________________________________________________________
Chorus

G|------------------------------------------------------------------|
D|------------------------------------------------------------------|
A|-------------------------------------------------9-9-9-9-9-9-11\--|
E|-5-5-5-5-5-5-5-5-7-7-7-7-7-7-7-7-9-9-9-9-9-9-9-9------------------|

G|-----------------------------------9---9---9---9-------|
D|---7---7---7---7---9---9---9---9-----------------------|
A|---------------------------------7---7---7---7---------|
E|-5---5---5---5---7---7---7---7-------------------/14\--| <<Same here, just slide up and down really fast.

G|-----------------------------------------------------------------------------|
D|-----------------------------------------------------------------------------|
A|-------------------------------------------4-4-4/11-----11-9---9-----11-9----|
E|---0---4---5---5---5---5---4---4---4---4--------------9----------9-9------9--|

G|------------------------------------------------------------|
D|------------------------------------------------------------|
A|------------------------------------------------------------|
E|-5-5-5-5-5-5-5-5-7-7-7-7-7-7-7-7-9-9-9-9-11-11-11-0---/14\--| <<Same here.


_________________________________________________________________________________________________________


G|------------------------------------------------------------------|
D|------------------------------------------------------------------|
A|---------------------------------4-4-4/11-----11-9---9-----11-9---|
E|-5-5-5-5-5-5-5-5-4-4-4-4-4-4-4-4------------9----------9-9------9-|

G|---------------------|
D|---------------------|
A|---------------------|
E|-5-5-5-5-5-5-5-/14\--| <<Same here.

_________________________________________________________________________________________________________
2nd Verse

G|------------------------------------------|
D|------------------------------------------|
A|--2---3---4-4p2-4-4-4p2-4---2-4p2-4-4-4-4-|
E|------------------------------------------|

G|---------------------------------|
D|---------2-2-------------2-2-2-2-|
A|-----2-2-----2-------------------|
E|-0-0-----------0---0---0---------|

G|----------------------------------|
D|----------------------------------|
A|----------------------------------|
E|-2---2p0-2-2p0-2---0h2-0h2-2-/14\-| <<Same here.

G|---------------------------------|
D|---------------------------------|
A|-------------------6-9---6-9-----|
E|-5-5-5-5-5-5-5-5-7-----7-----7---|

G|-------------------------------------------------9-9-11-11-9-9---------|
D|---------6-6/9-9-11-11-9-9---------------6-6-9-9---------------9-9-----|
A|-4-4-7-7-------------------11-11-9-9-7-7---------------------------7-7-|
E|-----------------------------------------------------------------------|

G|--------------/11---11-11-11-11-11-13\----------------------------------|
D|---------4-4-4--------------------------------------7-7-9-9-9-9---------|
A|--------------------------------------------4-4/7-7---------------------|
E|-2---2-2--------------------------------5-5---------------------7---8---|

_________________________________________________________________________________________________________
Pre-Chorus

G|--------------------------------------------------------|
D|--------------------------------------------------------|
A|-----------------------------------/11-11-11-11-9-7-----|
E|-9\----/7-9\---0--2/7-9\---/7-9\------------------------|

G|-------------------------------------------------------------|
D|-----------------------------------------------------------6-|
A|-----------------------------------------------------3--6----|
E|-9-9-9-7-7-7-9-9-9-7-7-7-9---9---7----------------4----------|

_________________________________________________________________________________________________________
The 2nd Chorus is the same as the first.

_________________________________________________________________________________________________________
Pre-solo

G|---------------------------------------------------------------|
D|------------------------------------------8-----7-----6--------|
A|---------------7-----9--9-7---7-------7\6---6\5---5\4----------|
E|-/14\-/9---7-9---9----------9---9-7-----------------------/14\-| <<Here you actually have to slide to 14 the first time.
    The second time just slide wherever.

_________________________________________________________________________________________________________
Solo

G|---------------------------------------------------------------|
D|---------------------------------------------------------------|
A|---------------------------------4-4-4-4---4-------------------|
E|-5-5-5-5-5-5-5-5-4-4-4-4-4-4-4-4---------------2---2-2-2-2-2-2-|

G|------------------------------------------------------------------|
D|----------------------------------------------------------------9-|
A|-11---------------7-----9-----7---4-4-4-6-6-6-7-7-7-9-9-9-11-11---|
E|------9---7---9---------------------------------------------------|

_________________________________________________________________________________________________________
Cool part after solo

G|-----------------------------------------------------------------------------------------------------|
D|-10----------------------------------10----------12----------------------------------------------12--|
A|-------------------------------10--------------------------------------------------------------------|
E|-----------------------------------------------------------------------------------------------------|

G|---------------------------------------------------------------14-----------12----------11----9------|
D|-10------------------------------------------10----12------------------------------------------------|
A|-------------------10-----------3-----10-------------------------------------------------------------|
E|-----------------------------------------------------------------------------------------------------|

G|------------------------------------------------------------------------------------14---------------|
D|-10---------------------------------------10----------12----------------------------------12---------|
A|-------10-----------3---------------10---------------------------------------------------------------|
E|-----------------------------------------------------------------------------------------------------|

G|-----------------------------------------------------------------------------|
D|--------------------------------/9---9-9-9-9-9-9-9--9--9--9--9--9------------|
A|-2---2-2-2-2-2-2-2-2-2-2-2-2-2-2---------------------------------------------|
E|-----------------------------------------------------------------------------|


_________________________________________________________________________________________________________
Last Chorus

G|-----------------------------------------------------------------|
D|-----------------------------------------------------------------|
A|-------------------------------------------------9---------------|
E|-5---------------7---7---------7--h9-9---------------------------|

G|-------------------------------------------------------------------|
D|-------------------------------------------------------------------|
A|---------------------------------7-7-7-7-7-7-7-7-9-9-11-11-9-9-7---|
E|-5-5-5-5-5-5-5-5-7-7-7-7-7-7-7-7-----------------------------------|

G|-------------------------------------------------------------------|
D|-------------------------------------------------------------------|
A|---------------------------------4-4-4/11-----11-9---9-----11-9----|
E|-5-5-5-5-5-5-5-5-4-4-4-4-4-4-4-4------------9----------9-9------9--|

G|------------------------------------------------------------|
D|------------------------------------------------------------|
A|------------------------------------------------------------|
E|-5-5-5-5-5-5-5-5-7-7-7-7-7-7-7-7-9-9-9-9-11-11-11-0---/14\--| <<Same here.

G|-----------------------------------------------------------------|
D|-----------------------------------------------------------------|
A|-----------------------------------------------------------------|
E|-5---------------7-7-------------9-----9-----9-----9----/14\-----| <<Same here.


_________________________________________________________________________________________________________
Outro

G|---------------------------------------------------------------|
D|---------------------------------------------------------------|
A|---------------------------------4-4-4-4---4-------------------|
E|-5-5-5-5-5-5-5-5-4-4-4-4-4-4-4-4---------------2---2-2-2-2-2-2-|

G|---------------------------------------------------------------|
D|-----------------------------------------------------6---------|
A|---------------------/11---11-9-11----4----6----7--------9---7-|
E|-5-5-5-5-5-5-5-4-----------------------------------------------|

G|----------------|
D|----------------|
A|-------9p7------|
E|-9p7---------9--|



Last edited by Ryuuseigun_39 on Fri Oct 24, 2014 4:55 pm; edited 1 time in total (Reason for editing : Fixed a small error at the solo part)


_________________________________________________________________________________________________

TIMO  -  HARU  -  RINA  -  MAMI
Back to top Go down