Future Chords and Tabs
Posted on Sat Jun 05, 2010 7:01 pm


ren-00

Caless Student
Caless Student
Just finished this today. There might be some mistakes but I will just edit it when I get back on it. For the meantime, hope this works.

Code:


FUTURE - SCANDAL
-----------------------------------------------------------------
Tabbed by:ren-00
Tuning:Standard
Chords:

A - 577655
B - 799877
G#m - 466444
C#m - x46654
C - x35553
D - x57775
E - x79997
G - x1012121210
A - x1214141412
D5- x577xx
C#5 - x466xx
C5 - x355xx
B5 -x244xx
E5 -x799xx

Intro:




E|--0-0-0-0-0-0-0-0-0-0-0--|--0-0-0-0-0-0-0--0-0-0----|
B|--0-0-0-0-0-0-0-0-0-0-0--|--0-0-0-0-0-7-7--7-7-7----|
G|--9-9-8h9-9-9-9-8h9-9-9--|--9-9-8h9-9-9-9--9-9-9----|
D<-------------------------|--------------------------|
A|-------------------------|--------------------------|
E|-------------------------|--------------------------|



    A              B          G#m          C#m

E|--7-7-9-7-7-7-7--0-0--0--|--7-7-9-7-7-7-7--0-0-0-0-0-|
B|--0-0-0-0-0-0-0-10-9-10--|--0-0-0-0-0-0-0-10-9-7-7-7-|
G|--9-9-9-9-9-9-9--9-9--9--|--9-9-9-9-0-9-9--9-9-9-9-9-|
D<-------------------------|---------------------------|
A|-------------------------|---------------------------|
E|-------------------------|---------------------------|

    A            B            C                  D
 
E|--0-0-0-0-0-0--0-0-0-0-0-|---------------------------|
B|--0-0-0-0-0-0--0-0-0-0-7-|--5-x-x-5-x-x-5-x-x--7-x-7-|
G|--9-9-9-9-9-9--8-8-9-9-9-|--5-x-x-5-x-x-5-x-x--7-x-7-|
D<-------------------------|--5-x-x-5-x-x-5-x-x--7-x-7-|
A|-------------------------|--3-x-x-3-x-x-3-x-x--5-x-5-|
E|-------------------------|---------------------------|



E                        D
Mijikai hari ga kyou mo “nana” o sasu
E                        D
Mezamashi beru no oto yuutsu na moonin
A                C
Wake up! Wake up! Wake up! Wake up!

E G-A (2X)

C#m    A          G#m    B
Haato nakushita robotto ja nai no
C#m    A            B
Naite waratte mata tsuyoku naru



Rhythm Fill 1

E|-------------------------|
B|-------------------------|
G|-------------------------|
D<--9--------6-7-9---------|
A|---6-7-8-9---------------|
E|-------------------------|

       
        A          B      G#m
Kowase free again! mayotte try again!
C#m    A        B      C#m  E       
Kokoro kizutsuki nagara ikiteku
            A          B        G#m
We can be free again! itsuka wa fly away!
C#m    A        B        E
Kitto kaeteikeru sa fyuuchaa


INSTRUMENTAL: A B C D

E|-7-7-9-7-7-7-7--0-0-0-0-0-|--------------------------|
B|-0-0-0-0-0-0-0-10-9-7-7-7-|-5-x-x-5-x-x-5-x-x--7-x-7-|
G|-9-9-9-9-0-9-9--9-9-9-9-9-|-5-x-x-5-x-x-5-x-x--7-x-7-|
D<--------------------------|-5-x-x-5-x-x-5-x-x--7-x-7-|
A|--------------------------|-3-x-x-3-x-x-3-x-x--5-x-5-|
E|--------------------------|--------------------------|

E                      D
Gochagocha biru no mori miakitara
E                  D   
Dejitaru sanpome de tobidase! OK?
A                  C
Stand up! Stand up! Stand up! Stand up!


E G-A (2X)

C#m    A          G#m    B
Noizu darake de togiresou na koe
C#m    A            B
Miushinau mae ni ikanakya

(Repeat Rhythm fill)

        A          B      G#m
Tsukame free again! nigezu ni try again!
C#m      A      B      C#m  E
Tsuyoku asu ni mukatteyukitai
          A          B      G#m
We can be free again! imasugu fly away!
C#m      A      B      E
Motto kaeteikeru nda fyuuchaa

D5 C#5 C5 B5 (3x)
D5 D5 C#5 D5 E5

A          B      G#m
Hontou wa kowakute nigetai
C#m      A      B      C#m  E
Dakara kakkotsukete sakebu yo
          A          B      G#m
Tsukame free again! nigezu ni try again!
C#m      A      B      C#m  E
Tsuyoku asu ni mukatteyukitai
          A          B      G#m
We can be free again! imasugu fly away!
C#m      A      B      E
Motto kaeteikeru nda fyuuchaa


Outro:  A B G#m C#m
        A B C D  E~

E|--7-7-9-7-7-7-7--0-0--0--|--7-7-9-7-7-7-7--0-0-0-0-0-|
B|--0-0-0-0-0-0-0-10-9-10--|--0-0-0-0-0-0-0-10-9-7-7-7-|
G|--9-9-9-9-9-9-9--9-9--9--|--9-9-9-9-0-9-9--9-9-9-9-9-|
D<-------------------------|---------------------------|
A|-------------------------|---------------------------|
E|-------------------------|---------------------------|

E|--0-0-0-0-0-0--0-0-0-0-0-|---------------------------------------|
B|--0-0-0-0-0-0--0-0-0-0-7-|--5-x-x-5-x-x-5-x-x--7-x-7-7-7-7-7--9--|
G|--9-9-9-9-9-9--8-8-9-9-9-|--5-x-x-5-x-x-5-x-x--7-x-7-7-7-7-7--9--|
D<-------------------------|--5-x-x-5-x-x-5-x-x--7-x-7-7-7-7-7--9--|
A|-------------------------|--3-x-x-3-x-x-3-x-x--5-x-5-5-5-5-5--7--|
E|-------------------------|---------------------------------------|



As usual, paste to notepad for better view. :-)



Last edited by ren-00 on Tue Jun 15, 2010 11:29 am; edited 1 time in total (Reason for editing : added chord equivalents)

Back to top Go down

Re: Future Chords and Tabs
Posted on Sun Jun 06, 2010 2:43 am


haritomi.denise

International Performer
International Performer
http://www.instagram.com/haritomi
Woah~!XDD
Sugoi~!XD
Can i make a request Ren-kun~?XD
Can you figure out the chords/tabs of START~?XD
Gah,and thanks for the FUTURE~ Nice One


_________________________________________________________________________________________________

"...most people die never realizing the dream of their lives...”


l DeviantArt ll Tumblr l
Back to top Go down

Re: Future Chords and Tabs
Posted on Mon Jun 07, 2010 9:30 am


chopstickattack

Shiroten Performer
Shiroten Performer
Love i love this song!!! LOVE thank you thank you thank you Clap
could you post the cjord equivalents too Please Shy

Back to top Go down

Re: Future Chords and Tabs
Posted on Tue Jun 08, 2010 3:27 am


Rina's Knight

International Performer
International Performer
WAKE UP!!

WAKE UP!!

WAKE UP!!


Dance


sankyou Mr. Ren.. Praise

Back to top Go down

Re: Future Chords and Tabs
Posted on Tue Jun 15, 2010 11:35 am


ren-00

Caless Student
Caless Student
@ d3nise

gomen ne, I was out for a while and I didn't see your request. anyways I guess everything's ok now since tsunvun already tabbed START so thanks to him. Happy

@chopsticksattack
updated my posts and added the chords equivalent you requested. hope that works for you. >-

Back to top Go down

Re: Future Chords and Tabs
Posted on Wed Jun 16, 2010 8:09 am


loudormis

Caless Student
Caless Student
thanks for the tab.. great help..

Back to top Go down

Re: Future Chords and Tabs
Posted on Tue Jul 13, 2010 11:07 am


chopstickattack

Shiroten Performer
Shiroten Performer
Dies PERFECTION!!!!! Love
Saankyu !!!!
Looks like you got yourself a fan Praise

Back to top Go down

Re: Future Chords and Tabs
Posted on Tue Oct 26, 2010 11:14 am


sasuke21

Caless Student
Caless Student
thanks for the tabs

Back to top Go down

Re: Future Chords and Tabs
Posted on Sun Sep 09, 2012 8:01 am


Andika

SPAMMER
SPAMMER
thank you^ Clap
nice chord n tab

Back to top Go down