Maboroshi Night Chords and Tabs
Posted on Sat Jun 05, 2010 7:10 pm


ren-00

Caless Student
Caless Student
You thanked this post! -
Thanks received by this post:

Message reputation : 100% (2 votes)

Here's Maboroshi Night. :-)


Code:

-----------------------------------------------------------------
Maboroshi Night - SCANDAL
-----------------------------------------------------------------
Tabbed by: ren-00
Tuning: standard



Intro: C#m ~

E|-------------------|--------------------|
B|-------------------|--------------------|
G|-------------------|------------4-5-6---|
D<------4-5-6--------|------4-5-6---------|
A|--4-7-------2-3-4--|--4-7---------------|
E|-------------------|--------------------|


E|-------------------|--------------------|
B|-------------------|--------------------|
G|-------------------|------------4-5-6---|
D<------4-5-6--------|------4-5-6---------|
A|--4-7-------2-3-4--|--4-7---------------|
E|-------------------|--------------------|





Verse: (pattern)

      C#5    B5  Bb5    B5      C#5  B5    C#5  E5

E|--------------------------|--------------------------|
B|--------------------------|--------------------------|
G|-x-x-6-x-x-4-x-x-3-x-x-4--|-x-x-6-x-x-4-x-x-6-x-x-9--|
D<-x-x-x-x-x-x-x-x-x-x-x-x--|-x-x-x-x-x-x-x-x-x-x-x-x--|
A|-x-x-4-x-x-2-x-x-1-x-x-2--|-x-x-4-x-x-2-x-x-4-x-x-7--|
E|--------------------------|--------------------------|

     
      F#5    E5  D#5    E5      F#5  E5    D#5  E5
E|--------------------------|--------------------------|
B|--------------------------|--------------------------|
G|-x-x-11-x-x-9-x-x-8-x-x-9-|-x-x-11-x-x-9-x-x-8-x-x-9-|
D<-x-x--x-x-x-x-x-x-x-x-x-x-|-x-x--x-x-x-x-x-x-x-x-x-x-|
A|-x-x--9-x-x-7-x-x-6-x-x-7-|-x-x--9-x-x-7-x-x-6-x-x-7-|
E|--------------------------|--------------------------|





  C#5      B5 Bb5 B5    C#5  B5 C#5 E5
Taikutsu na Midnight kyou mo nemure nai

      F#5      E5      D#5      E5
Denwa demo kuretara sugu ni tondeku wa

    F#5      E5      D#5      E5
Douse ashita mo hiru made neten desho?


(Repeat INTRO)

  C#5      B5 Bb5 B5    C#5  B5 C#5 E5
Yo no naka wa Weekend tenshi no rakuen

      F#5      E5      D#5      E5
Akuma no shippo wo koshi ni maitara

      F#5      E5      D#5      E5
Amai koi wo shite madowaseru no yo


Refrain:


      F#5      E5  F#5      E5 F#5
Dakara ima sugu hora nugisute you

F#5      E5 F#5      E5 F#5
Ira nai mono zenbu hakidase

G#5        A5      B5 A5 G#5
AH AH AH AH omoi no mama ni


Chorus:


C#m
Eien nante sugu ni maboroshi de

B5
Aijou nante katachi mo nai

A5
Choi arigachi na taikutsu nara

G#5
Soo sono mama de

C#m
Amai mirai ga mitakya tsuite ki na

B5
Damatte ushiro tsuite ki na

A5
Miru mono subete yakitsuke na

G#5
Sou sore dakede…

C#m B5  C#m E  C#m    B5 C#m E
Sukkari bidan bibou wa shudan

F#5-G F#5-G F#5-G F#5-G
KIRAKIRA KIRAKIRA

G#5
motto shitai dake


(Repeat Intro)


VERSE 2 (use chords from verse 1)

Yokubari Everyday nani ka ga tari nai
MASUKARA tsuyome de yoroi matotte mo
Kekkyoku mudaashi fumu dake nan desho?
Otegaru na renai kaki keshite souon
Deatta shunkan torokechau yo na
BANIRA na kibun ni oboretai no yo

REFRAIN 2: (use chords from refrain 1)
Dakedo mayoeba hora CHANSU nante NO!
Kyoumi nai koto matomete NO!
AH AH AH AH omoi no mama ni


CHORUS 2: (use chords from chorus 1)
Anata zenbu uke tomete kureru yo?
RIZUMU watashi ni awasete yo?
Sukoshi samishige na yoru no hana kawai gatte

Amai mirai ga hoshii itsudatte
Damatte watashi dakishimete
Kikoeru subete wo uta ni shite sou kono mune ni

Isshin furan yappari fuman? IEI IEI…


Instrumental/Solo: C#m ~


E|------------------|-------------------------------|
B|------------------|--------------------12-11-10-9-|
G|---11b1311--11b13-|---------------8/9-------------|
D<------------------|-9h10-9-10-10------------------|
A|------------------|-------------------------------|
E|------------------|-------------------------------|



E|-----------12-11-10-9-|-----6---------------------|
B|--------11------------|-7/9-------10-9------------|
G|------9---------------|-------9-8------7-6--------|
D<--9h10----------------|---------------------------|
A|----------------------|---------------------------|
E|----------------------|---------------------------|




G#5        A5      B5 A5 G#5
AH AH AH AH omoi no mama ni


CHORUS 3: (Use chords from Chorus 1)
Eien nante sugu ni maboroshi de
Aijou nante katachi mo nai
Choi arigachi na rikutsu nara soo sono mama de

Amai mirai ga mitakya tsuite ki na
Damatte ushiro tsuite ki na
Miru mono subete yakitsuke na
Sou sore dakede…

Sukkari bidan bibou wa shudan
KIRAKIRA KIRAKIRA motto shitai dake








Back to top Go down

Re: Maboroshi Night Chords and Tabs
Posted on Sun Jun 06, 2010 2:47 am


haritomi.denise

International Performer
International Performer
http://www.instagram.com/haritomi
gaaaaahh~!XD
Sugoi~!Sankyu~ Amazed


_________________________________________________________________________________________________

"...most people die never realizing the dream of their lives...”


l DeviantArt ll Tumblr l
Back to top Go down

Re: Maboroshi Night Chords and Tabs
Posted on Sun Jun 06, 2010 6:51 am


Aosaru

International Performer
International Performer
Thank you very much ren! Peace Onion

Back to top Go down

Re: Maboroshi Night Chords and Tabs
Posted on Wed Jun 16, 2010 8:13 am


loudormis

Caless Student
Caless Student
thanks for the tab.. great help..

Back to top Go down

Re: Maboroshi Night Chords and Tabs
Posted on Thu Jun 17, 2010 1:11 pm


chopstickattack

Shiroten Performer
Shiroten Performer
COOL!! Thanks ren !! Nice One

Back to top Go down

Re: Maboroshi Night Chords and Tabs
Posted on Tue Sep 10, 2013 8:55 pm


andressakiyama

Caless Student
Caless Student
Thanks a lot! Clap

Back to top Go down

Re: Maboroshi Night Chords and Tabs
Posted on Sat Sep 14, 2013 7:15 am


waning_moon

Indie Artist
Indie Artist
Thanks so much! Such a fun song to play, especially for someone who's just picking up the electric guitar Happy

Back to top Go down