Yumemiru Tsubasa Chords and Tab
Posted on Sat Jun 05, 2010 7:30 pm


ren-00

Caless Student
Caless Student
You thanked this post! -
Thanks received by this post:

Message reputation : 100% (2 votes)

Here's Yumemiru Tsubasa as requested. :-)


Code:

-----------------------------------------------------------------
Yumemiru Tsubasa - SCANDAL
-----------------------------------------------------------------
Tabbed by: ren-00

Tuning: standard
Chords:
Bm - x24432
C#5 - X466XX
D - XXO232
D - X57775
D5- X577XX
G - 355433
G5/F# - 255xxx
A5/G# -477xxx
F#m - 244222
A - x02220
A - 577655
A5 - 577xxx
G5 -355xxx
E5 - 022xxx


G        A          Bm
Yume miru tsubasa ni notte (2x)

INTRO: Bm - C#5
     
    D ~

E|--14---------------------------------|-14-----------------------------------|
B|-----17-15-17-15-14-15-14-15---------|---17-15-17-15-14-15-14-15------------|
G|-----------------------------16-14---|---------------------------16-14------|
D<-------------------------------------|--------------------------------------|
A|-------------------------------------|--------------------------------------|
E|-------------------------------------|--------------------------------------|



D                Bm
Kou mo watashi wa umaku waraenai no
D              Bm 
Kou wake no wa chiwa kinono tsuzuki
G  G/F#-G(4x)                      A  A/G#-A(2x)
Sukoshi wa siriru ga mazatta youna dorama ni yoku waru koi dashi daidake

D                Bm
Hitori doochi mo sou waru kunaito
D                  Bm
Madoni kyuutsusu mo tooka teitsu
G  G5/F#-G(4x)                          A  A5/G#-A(2x)
Anata no migite nitodo kai ga ikke wa watashi no aiwa itsumo hitochinai

CHORUS:

(arpeggio fill in)

E|-9-----9---------10-----10--------|-9----9---------10-----10------------|
B|--10----10---10-----8------8---8--|--10----10--10-----10----10---10-----|
G|----11----11----------7------7----|----9-----9-----------9-----9--------|
D<----------------------------------|-------------------------------------|
A|----------------------------------|-------------------------------------|
E|----------------------------------|-------------------------------------|



E|-9-----9---------10-----10--------|
B|--10----10---10-----8------8---8--|
G|----11----11----------7------7----|
D<----------------------------------|
A|----------------------------------|
E|----------------------------------|



F#m    G    A        D
Yume miru tsubasa ni notte
F#m  G
Anata no koe ga yume mitsu
G
Bikku yakuso kuno bashou e

(REPEAT INTRO)

D              Bm
Hetto bou onde mimi wo fusaiba
D                Bm
Sukito hoshitachi doriwo irodori
G  G5/F#-G(4x)                      A  A5/G#-A(2x)
Zenokai ichi kure kawai yuku sekai shiawase fuzai no imao suki ga kure

F#m  G    A        D
Yume miru tsubasa ni notte
F#m  G 
Anata no koe ga yume mitsu
G
Bikku kotokyou you suki yo

INSTRUMENTAL: D F#m Bm A
              D F#m

                                       
  Bm          A~

E|-------------|-------------------|----------|---------------|
B|-------------|-10------7-----5---|-10-------|--8-----10-----|
G|-------------|-12b14~~~9b11--7b9-|-12b14~~~-|-10b12--12b14--|
D<-------------|-------------------|----------|---------------|
A|-2-4-5-4-2---|-------------------|----------|---------------|
E|-----------4-|-------------------|----------|---------------|




CHORUS 2:

(Arpeggio fill in)


E|----------17------------------17----------|---------17-----17-----17------|
B|----15-------15----15---14-------14----14-|----15------15----15-----15----|
G|-14----14-------14----14---14-------14----|-16---16------16----16-----16--|
D<------------------------------------------|-------------------------------|
A|------------------------------------------|-------------------------------|
E|------------------------------------------|-------------------------------|


E|----------17------------------17----------|---------17-----17-----17------|
B|----15-------15----15---14-------14----14-|----15------15----15-----15----|
G|-14----14-------14----14---14-------14----|-16---16------16----16-----16--|
D<------------------------------------------|-------------------------------|
A|------------------------------------------|-------------------------------|
E|------------------------------------------|-------------------------------|

E|----------17------------------17----------|---------17-----17-----17------|
B|----15-------15----15---14-------14----14-|----15------15----15-----15----|
G|-14----14-------14----14---14-------14----|-16---16------16----16-----16--|
D<------------------------------------------|-------------------------------|
A|------------------------------------------|-------------------------------|
E|------------------------------------------|-------------------------------|

E|----------17------------------17----------|---------17-----17-----17------|
B|----15-------15----15---14-------14----14-|----15------15----15-----15----|
G|-14----14-------14----14---14-------14----|-14---14------14----14-----14--|
D<------------------------------------------|-------------------------------|
A|------------------------------------------|-------------------------------|
E|------------------------------------------|-------------------------------|


E|----------17------------------17----------|---------17-----17-----17------|
B|----15-------15----15---14-------14----14-|----15------15----15-----15----|
G|-14----14-------14----14---14-------14----|-16---16------16----16-----16--|
D<------------------------------------------|-------------------------------|
A|------------------------------------------|-------------------------------|
E|------------------------------------------|-------------------------------|

E|----------17------------------17----------|
B|----15-------15----15---14-------14----14-|
G|-14----14-------14----14---14-------14----|
D<------------------------------------------|
A|------------------------------------------|
E|------------------------------------------|

G          A        Bm  (A) 
Yume miru tsubasa ni notte
G          A        Bm  (A)
Yume miru tsubasa ni notte
G          A        Bm  (A)
Yume miru tsubasa ni notte
G          A        D  F#m
Yume miru tsubasa ni notte
G        A          Bm  (A)
Yume miru koro wo sugite mo
G        A        D
Yume miru koro wo sugite mo


Outro:

D Bm-A5-Bm-A5-G5-F#m-E5- D

E|--14--------------------------------|------------------------------|
B|-----17-15-17-15-14-15-14-15--------|------------------------------|
G|-----------------------------16-14--|-16-14--12-11-12-11-----------|
D<------------------------------------|--------------------14-12-12--|
A|------------------------------------|------------------------------|
E|------------------------------------|------------------------------|








I am unsure about some parts but I will just check it back again when I have the time. Paste to Notepad for better view. :-)



Last edited by ren-00 on Tue Jun 15, 2010 11:26 am; edited 1 time in total (Reason for editing : added chord equivalents)

Back to top Go down

Re: Yumemiru Tsubasa Chords and Tab
Posted on Sun Jun 06, 2010 2:44 am


haritomi.denise

International Performer
International Performer
http://www.instagram.com/haritomi
OSuuuuuuuuuuuuuugooooooooiiiiiii~!
Yume~!XD LOVE LOVE
sankyu sankyu~! Onion Skipping


_________________________________________________________________________________________________

"...most people die never realizing the dream of their lives...”


l DeviantArt ll Tumblr l
Back to top Go down

Re: Yumemiru Tsubasa Chords and Tab
Posted on Sun Jun 06, 2010 2:56 am


LostMemories

Caless Student
Caless Student
Thankkkk youuuuuuuuu LOVE


_________________________________________________________________________________________________
My Youtube Channel
Back to top Go down

Re: Yumemiru Tsubasa Chords and Tab
Posted on Mon Jun 07, 2010 9:35 am


chopstickattack

Shiroten Performer
Shiroten Performer
awesome-ness!!! Praise
chord equivalents please? Sweating

Back to top Go down

Re: Yumemiru Tsubasa Chords and Tab
Posted on Tue Jun 08, 2010 3:20 am


Rina's Knight

International Performer
International Performer
NICE!!!
Nice One


Thanks a lot!!!!


now i can sing.... "YUMEMIRU TSUBASA NI NOTTE...."
Happy

Back to top Go down

Re: Yumemiru Tsubasa Chords and Tab
Posted on Fri Jun 11, 2010 2:46 am


pyong

Caless Student
Caless Student
woaah!!! *---*
I can't believe it *----*
I'm very very gratefull man...thank thank you man...I'll start to practice it now *---*

Back to top Go down

Re: Yumemiru Tsubasa Chords and Tab
Posted on Fri Jun 11, 2010 3:08 am


haritomi.denise

International Performer
International Performer
http://www.instagram.com/haritomi
can you make a cover ren-kun~?XD
hahahahahaha~i wanna see you play~
is it okay~? Shy


_________________________________________________________________________________________________

"...most people die never realizing the dream of their lives...”


l DeviantArt ll Tumblr l
Back to top Go down

Re: Yumemiru Tsubasa Chords and Tab
Posted on Tue Jun 15, 2010 11:43 am


ren-00

Caless Student
Caless Student
@chopsticksattack
updated my posts and added the chords equivalent you requested.

@d3nise
tried doing a cover before but I am having serious latency problems probably because of my "antique" laptop (apart from not having the right equipment). I'm working on getting a new laptop (you could donate though, hehehe) but for the meantime I'll try if I could figure something out. Happy

Back to top Go down

Re: Yumemiru Tsubasa Chords and Tab
Posted on Tue Jun 15, 2010 1:10 pm


haritomi.denise

International Performer
International Performer
http://www.instagram.com/haritomi
ahahahaha~Arigato ren-kun~ Clap
sorry i'm unable to donate~hahaha
>:D
jya Ganbatte~!XD


_________________________________________________________________________________________________

"...most people die never realizing the dream of their lives...”


l DeviantArt ll Tumblr l
Back to top Go down

Re: Yumemiru Tsubasa Chords and Tab
Posted on Tue Jun 15, 2010 3:22 pm


rock_chick

Mainstream Artist
Mainstream Artist
d3nise wrote:can you make a cover ren-kun~?XD
hahahahahaha~i wanna see you play~
is it okay~? Shy

yeah indeed i'm waiting for a cover too
since not many people seem to cover it Delinquent

Back to top Go down

Re: Yumemiru Tsubasa Chords and Tab
Posted on Wed Jun 16, 2010 8:03 am


loudormis

Caless Student
Caless Student
thanks for the tab.. great help..

Back to top Go down

Re: Yumemiru Tsubasa Chords and Tab
Posted on Wed Jun 16, 2010 8:04 am


loudormis

Caless Student
Caless Student
thanks for the tab.. great help..

Back to top Go down

Re: Yumemiru Tsubasa Chords and Tab
Posted on Tue Jul 13, 2010 11:16 am


chopstickattack

Shiroten Performer
Shiroten Performer
WOOHOO!!!!! Clap

i think i can speak for all when i say "we're waiting for you to post some covers! - GANBARE!!! " Cheer Onion

Back to top Go down

Re: Yumemiru Tsubasa Chords and Tab
Posted on Fri Jul 23, 2010 10:23 am


lavin

Caless Student
Caless Student
Can someone do an acoustic cover??? I dont have an electric guitar yet..

Back to top Go down

Re: Yumemiru Tsubasa Chords and Tab
Posted on Wed Aug 04, 2010 10:45 am


sigit_mishi

International Performer
International Performer
http://japanslot.com
thank you very much ren...

i need this chord because i want to singing yumemiru tsubasa in bunkasai festival in my town....


_________________________________________________________________________________________________


Visit Our Blog At
Japanslot
Back to top Go down

Re: Yumemiru Tsubasa Chords and Tab
Posted on Thu Aug 05, 2010 12:34 am


harland

Caless Student
Caless Student
Great! Thanks for the chords.

Back to top Go down

Re: Yumemiru Tsubasa Chords and Tab
Posted on Wed Apr 20, 2011 5:51 pm


SouLRac25

Caless Student
Caless Student
Covers please, Happy haha..
well it's great, thanks for the tab ----> HELPS A LOT Happy


_________________________________________________________________________________________________
Back to top Go down

Re: Yumemiru Tsubasa Chords and Tab
Posted on Thu Apr 11, 2013 11:55 pm


*Haru~Chan*

Caless Student
Caless Student
Thank chu~~~~!!!!!!!!!!!!!!!!!!!!!!!! Love I wuv this song!!!!!!!!!!!! Hehe Clap I think I'll do a cover of this!!!!!!!!


_________________________________________________________________________________________________
  Love
Mami-chan
Back to top Go down