Onegai Navigation chords
Posted on Tue Nov 25, 2014 1:09 pm


Honey~desu

Caless Student
Caless Student
Onegai Navigation chords, douzo  
Tell me if you find any mistake  Nice One

Spoiler:

Intro:
Em (4x) B
Em A D G (4x)

Verse:
Em A D G B
Em A D G D
C D A
C D B

Chorus:
Em A D G C D G B
Em A D G C D
Em

Verse:
Em A D G B
C D A
C D B

Solo:
Em A D G
C D G B 
A G C D B

Chorus:
Em A D G C D G B
Em A D G C D Em

Em (4x) B
Em

Back to top Go down

Re: Onegai Navigation chords
Posted on Wed Nov 26, 2014 11:18 am


syakmp

Mainstream Artist
Mainstream Artist
Was just about to post the chords up but you bet me to it, haha. Tongue 

Here are the tabs for the intro and the solo both in notepad version and image version.

Paste into notepad/pastebin: 
Spoiler:

Intro:
E|----------------------------------------------------
B|----------------------------------------------------
G|----------------------------------------------------
D<----------------------------------------0--0--2--2-
A|----------------------0--0--0--2--2--2-------------
E|----0--0--0--3--3--3------------------------------- x4 
(On the last time before going into the octaves there's a slight variation so look out for that)

E|----------------------------------------------------------------------------------------------------------------------------------
B|--15--15--15--15--15--15--15--15--17--17--17--17--17--17--17--17--10--10--10--10--10--10--10--10--12--12--12--12--12--12--12--12--
G|----------------------------------------------------------------------------------------------------------------------------------
D<--12--12--12--12--12--12--12--12--14--14--14--14--14--14--14--14--7---7---7---7---7---7---7---7---9---9---9---9---9---9---9---9---
A|----------------------------------------------------------------------------------------------------------------------------------
E|----------------------------------------------------------------------------------------------------------------------------------
(You can play those first two octaves on the last and 3rd string alternatively so that it's parallel to the last two octaves. Idk what I was thinking when tabbing this lol). 

Solo: 

E|-----------------------------------------------------------------------------------------------------------
B|-------------------------------------------------------------------12tr13------------------------------------
G|-----7--7--------------------------------------------5--7-----5/8--------14--12--------------12--------------
D<--9--------9--7------7------7------9--7--9--9--7--9--------5-------------------14--12--14------14--12--14--
A|-----------------10-----10-----10--------------------------------------------------------------------------
E|-----------------------------------------------------------------------------------------------------------


E|------------------------------------------------------------------------------------------------------
B|------------------------------------------12------15b17b15--15b17b15--15b17b15--15b17b15--15b17b15--17
G|--11tr12--------------------------12--14------14------------------------------------------------------
D<----------14--12--------------12----------------------------------------------------------------------
A|------------------14--12--14--------------------------------------------------------------------------
E|------------------------------------------------------------------------------------------------------


E|--12--16--17--17--17--17--17--17--17--17--17--19--19--17--17--19--19--17--17--19--19--19--19--
B|--0---0---0---0---0---0---0---0---0---0---0---0---0---0---0---0---0---0---0---0---0---0---0---
G|----------------------------------------------------------------------------------------------
D<----------------------------------------------------------------------------------------------
A|----------------------------------------------------------------------------------------------
E|----------------------------------------------------------------------------------------------
(I'm pretty sure the bends and what's after it is incorrect; anyone with better tabs/corrections please speak out lol)

Images of tabs: 
Spoiler:







_________________________________________________________________________________________________
Love SCANDAL!!  LOVE
Back to top Go down

Re: Onegai Navigation chords
Posted on Sat Nov 29, 2014 2:42 am


M

Mainstream Artist
Mainstream Artist
My intro's: (sorry, i did not count how many times you play a note. but here they are)
Spoiler:

-------------------------------
--------------------------------
--------------------------------
------------------------------
-------------------5--7--------
--0---3---5---7---------------


_________________________________________________________________________________________________
Back to top Go down

Re: Onegai Navigation chords
Posted on Sun Dec 07, 2014 6:01 am


Feferuloo

Caless Student
Caless Student
http://www.youtube.com/user/Tron544
You thanked this post! -
Thanks received by this post:

Message reputation : 100% (5 votes)

I've made a cover... so, if you want, you can check my tabs out! :B

Back to top Go down

Re: Onegai Navigation chords
Posted on Sun Dec 07, 2014 1:29 pm


syakmp

Mainstream Artist
Mainstream Artist
You thanked this post! -
Thanks received by this post:

Message reputation : 100% (1 vote)

^^Dude, amazing cover! To see someone so happy and energetic play is just so fun~


_________________________________________________________________________________________________
Love SCANDAL!!  LOVE
Back to top Go down

Re: Onegai Navigation chords
Posted on Tue Dec 09, 2014 5:53 am


Hachi Kyuu

Caless Student
Caless Student
Thanks so much X3

Back to top Go down

Re: Onegai Navigation chords
Posted on Mon Dec 22, 2014 5:03 pm


Noodles

Global Moderator
Global Moderator
http://atarashiimusic.com
You thanked this post! -
Thanks received by this post:

Message reputation : 100% (1 vote)

Feferuloo wrote:I've made a cover... so, if you want, you can check my tabs out! :B


Wow that was incredible, thank you for the awesome video!


_________________________________________________________________________________________________
Back to top Go down

Re: Onegai Navigation chords
Posted on Thu Jan 08, 2015 7:49 pm


AlyTae

Indie Artist
Indie Artist
http://www.efpfanfic.net/viewuser.php?uid=264501
anyone has bass tabs?


_________________________________________________________________________________________________

6/6/2013 Green Day
1/3/2014 All Time Low
15/11/2014 + 21/11/2015 Lo Stato Sociale
11/5/2015 Sonata Arctica
19/3/2016 Modena City Ramblers
18/9/2016 SCANDAL
.:. efp.:.youtube.:.twitter.:.
Back to top Go down

Re: Onegai Navigation chords
Posted on Fri Jan 09, 2015 3:13 pm


Tomochi

International Performer
International Performer
http://www.wattpad.com/user/Tomachi
Feferuloo wrote:I've made a cover... so, if you want, you can check my tabs out! :B

woah! what an awesome cover  Amazed


_________________________________________________________________________________________________
                                                         
                                                                            Best night ever  Gehh
Back to top Go down

Re: Onegai Navigation chords
Posted on Sun Jan 25, 2015 3:48 am


Athenagiku

Caless Student
Caless Student
http://pinkyantigo.webs.com
ONEGAI NAVIGATION chords

I was searching in the net finding chords for Hello World tracks but i find only the singles featured in it. So i decided to make my own. I didnt see this post before then lol. So here's mine.


ONEGAI NAVIGATION chords:
ONEGAI NAVIGATION
-athenagiku

INTRO:
Em Em G G A A B B D Em x3
Em Em G G A A B B B D
Em Am D G x4

VERSE:
Em Am D G B
Em Am D G D

PRE-CHORUS:
C D Em A
C D B
B-A-G-F#m-G

CHORUS
Em Am D G
C D G B
Em Am D G
C D Em

INSTRUMENTAL:
B-Bb-A-Ab-G

VERSE 2:
Em Am D G B

repeat pre-chorus

SOLO:
Em Am D G
C D G B
Em Am D G
C D B~

repeat chorus

OUTRO:
Em G A B D Em x3
Em G A B B B D
E

feedbacks.


_________________________________________________________________________________________________
Back to top Go down

Re: Onegai Navigation chords
Posted on Mon Nov 07, 2016 8:03 am


Scandalous-Bangs

Caless Student
Caless Student
Wah~ Thank you so much!


_________________________________________________________________________________________________

~*~Bangs~*~Understood!
Back to top Go down