Tokyo Bass tab [Page 1 of 1]

Tokyo Bass tab
Posted on Mon Jun 21, 2010 9:50 pm


SourChicken

Shiroten Performer
Shiroten Performer
http://www.youtube.com/user/Bassection
You thanked this post! -
Thanks received by this post:

Message reputation : 100% (1 vote)

I by no means spent a long time on this, it was a rather quick tabbing and is a really fun song to play; it doesn't sound far off on the harder parts though.
http://www.ultimate-guitar.com/tabs/s/scandal/tokyo_btab.htm
Code:
0:06
|--------------|
|--------------|
|--5--5--5--5--|
|--------------|

|----------------------------------------|
|--------------------------------1010----|
|--555-5-55-55-234-5355-53535-99---------|
|----------------------------------------|

|------------------------------------|
|------------------------------------|
|--555-5-55-55-234-5355-53535--------|
|------------------------------7788--|

|----------------------------------------|  <|--
|--------------------------------1010----|  |Play
|--555-5-55-55-234-5355-53535-99---------|  |Twice
|----------------------------------------|  <|--

0:41
|-------------------------|  <|--
|-------------------------|  |Play
|--5----------------------|  |Twice
|---23-44-55-66-77-88-99--|  <|--

|----------------------------------------|  <|--
|--------------------------------1010----|    |
|--555-5-55-55-234-5355-53535-99---------|    |
|----------------------------------------|    |Play
                                              |
|------------------------------------|        |Twice
|------------------------------------|        |
|--555-5-55-55-234-5355-53535--------|        |
|------------------------------7788--|      <|--

1:12
|----------------------------------------------|
|----------------------------------------------|
|--4(x8)-5(x8)-2(x16)-4(x8)-5(x8)--------------|
|---------------------------------3(x8)-5(x8)--|

1:38
|----------|
|----------|
|--5(x64)--|
|----------|

1:51
|-------------------|  <|--
|--------3-2--------|  |Play
|--5-1-2-----1-0-6--|  |Twice
|-------------------|  <|--

|-----------------------------------------------|
|-----------------------------------------------|
|--4(x8)-5(x8)-2(x16)-4(x8)-5(x8)-2(x13)-0-2-3--|
|-----------------------------------------------|

|-------------------------------------------|
|-------------------------------------------|
|--4(x5)-244-5(x5)-433-2(x5)-122-2(x5)-123--|
|-------------------------------------------|

|---------------------------------------------|
|----------------------------------------775--|
|--4(x5)-244-5(x5)--------22-5(x4)----55------|
|------------------012-33----------55---------|

2:24
|----------|
|----------|
|--5(x24)--|
|----------|

|----------------------------------------|  <|--
|--------------------------------1010----|    |
|--555-5-55-55-234-5355-53535-99---------|    |
|----------------------------------------|    |Play
                                              |
|------------------------------------|        |Twice
|------------------------------------|        |
|--555-5-55-55-234-5355-53535--------|        |
|------------------------------7788--|      <|--



Last edited by SourChicken on Wed Jun 23, 2010 4:21 pm; edited 1 time in total

Back to top Go down

Re: Tokyo Bass tab
Posted on Mon Jun 21, 2010 10:24 pm


mikan

Mainstream Artist
Mainstream Artist
http://mikanhannille.com/
nice. you have more patience than me in doin bass tabs. Smile


_________________________________________________________________________________________________
Back to top Go down

Re: Tokyo Bass tab
Posted on Mon Jun 21, 2010 10:36 pm


SourChicken

Shiroten Performer
Shiroten Performer
http://www.youtube.com/user/Bassection
Well, I often start tabs and then get annoyed by the time I get half way through it; but most Scandal songs aren't too bad to tab.

Back to top Go down

Re: Tokyo Bass tab
Posted on Mon Mar 21, 2011 9:31 am


felixyukito

Indie Artist
Indie Artist
http://felixyukito.blogspot.com
Thanks Sour Chicken for this tab!! all hail !


_________________________________________________________________________________________________
君の全てに色めきたいや, 汗も涙も笑顔も何もかも
Back to top Go down