Chiisana Honoo chords Request
Posted on Thu Jun 09, 2016 7:32 am


Sjögren

Caless Student
Caless Student
Hi, does anyone know the chords? All I know it's a key of G, I don't know the chord progression. Please help. Thanks.  Tears of Joy

Back to top Go down

Re: Chiisana Honoo chords Request
Posted on Sat Jun 11, 2016 2:48 pm


Aizaibela

Caless Student
Caless Student
You thanked this post! -
Thanks received by this post:

Message reputation : 100% (1 vote)

Hi! I found this version in this japanese website but i think they also use different variations of those chords, i'm trying to tab the song and post on ultimate guitar! Clap Happy I hope this helps you ^-^

http://music.j-total.net/data/013su/037_SCANDAL/065.html

Back to top Go down

Re: Chiisana Honoo chords Request
Posted on Sat Jun 11, 2016 3:12 pm


Sjögren

Caless Student
Caless Student
Thank you very much. Rich

Back to top Go down

Re: Chiisana Honoo chords Request
Posted on Tue Jun 14, 2016 10:38 pm


Aizaibela

Caless Student
Caless Student
Hello! They've accepted my tab! I hope it can help you! Happy  Happy it's at https://tabs.ultimate-guitar.com/s/scandal/chiisana_honoo_tab.htm  ^-^  Love Clap

Back to top Go down

Re: Chiisana Honoo chords Request
Posted on Thu Jun 16, 2016 7:48 pm


Aizaibela

Caless Student
Caless Student
You thanked this post! -
Thanks received by this post:

Message reputation : 100% (1 vote)

Intro (Haruna only)
Chords:

G Am7 Bm Em C C9 Cm D5 E5
e|-3-----0-----2-----3----0----0-------3----x----x----|
B|-0-----1-----3-----0----1----3-------4----x----x----|
G|-0-----0-----4-----0----0----0-------5----7----9---|
d|-0-----2-----4-----2----2----2-------5----x----x----|
A|-2-----0-----2-----0----3----3-------3----5----7----|
E|-3-----x-----x-----x----x----x-------x----x-----x-----|

Verse 1

G Am7 Bm Em
Moete, yurete, toketeku
C9
Kyandoru mitai da
G D Em
Anata to watashi

G Am7 Bm Em (Mami plays part below)
Itsuka kiete shimau
C D
Chiisana honoo

e|-10-------10------------------------------------------10-----|
B|----10-------10-----------10---------------10------10-----|
G|--------12-------12----------12---------12---------12-----|
d|-------------------12--------------12-14-------------x------|
A|-----------------------12------------------------------x------|
E|--------------------------------------------------------x------|


Intro Solo (Mami)
e|--15-------------------------------15-------------8-10-11-15--15-----|
B|-----15--------------------------------15---------------------------------|
G|--------14/16----4-5-5-(5)-4----------14/16-------------------------|
d|----------------------------------------------------------------------------|
A|----------------------------------------------------------------------------|
E|----------------------------------------------------------------------------|The (x) means bend.
(At this part, Haru is playing G and Cm)


Haru plays C9 and Em like picking with fingers :
C9 Em
e|----------------------3----|
B|----------3---------3-----|
G|--------0--------0-------|
d|------2-------2----------|
A|---3---------------------|
E|-------------------------|
C9 Em
Fumidashite mae wo muku soredemo
C9 Em
Kowai mono nante nakunaranai sa
C9 Em (Mami plays part below)
Kitaihazure no kinou to kyou wo
C9 D5 E5
Ashita mo waratte ukeiretai nara


e|-15---------15--------15---------x----x-----------------------17-------|
B|----15---------15-------15-------x----x------------15--17-------------|
G|-------17---------16-------17----7----9-----14------------------------|
d|-------------------------------------x----x---------------------------------|
A|-------------------------------------5----7--------------------------------|
E|-------------------------------------x----x----------------------------------|


Chorus:
G Bm Em C Cm D
e|-3-----2-----7----3----3---5----|
B|-3-----3-----8----5----4---7----|
G|-4-----4-----9----5----5---7----|
d|-5-----4-----9----5----5---7----|
A|-5-----2-----7----3----3---5----|
E|-3-----x-----x----x----x---x-----|

G D Em C Cm
Hoshi ni naru hi made iki wo sutte ikiru no
G Bm
Umaku susumenai anata wo
Em C Cm
Daremo semetari shinai kara aah

(Mami)

e|-(19)(19)(19)(19)(19)(19)(19)-------(19)---------15-----17-15---------------------------------|
B|--------------------------------------(18)-------------------15---------15-----13----------------------|
G|--------------------------------------------------17---------------------------------14---12------------|
d|--------------------------------------------------------------------------------------------------12-------|
A|------------------------------------------------------------------------------------------------------------|
E|------------------------------------------------------------------------------------------------------------| The (x) means bend.


Verse 2

C9 Em C9 Em
Moete, yurete, toketeku
C9 Em C9 Em
Anata to watashi no inochi

Mami plays

e|------------------------------------------------------------------------------------------------------------|
B|-12------------10--------12----------15-13-12h13------------15----------13------------13---------|
G|----------12--------12---------14--------------------12----12----------------------12-14-------16---|
d|-----------------10---------12----------------------------12---------12--14-----16---------------------|
A|-----14----------------------------------------------------------------------------------------------------|
E|------------------------------------------------------------------------------------------------------------|



G Am7 Bm C
Tomatta mezamashidokei nara
Em C C5/B5/A5/G5
Konbini no denchi de ikikaeru kedo

Mami plays

e|----------------------------------------------------------|
B|--------------------------------12-8--10---------------|
G|-11/12-------------7-9-/12---------------------------|
d|---------12/10--9---------------------------------------|
A|--------------------------------------------3-2----------|
E|--------------------------------------------------5-3----|


C9 C9 C9 C9 Em Em Em Em
Onaji sora no shita hitori ja nai
C9 C9 C9 C9 Em Em Em Em
Tadashisa dake ga kotae ja nakatta
C9 C9 C9 C9 Em Em Em Em
Kurikaeshi no you na mainichi da tte
C9 C9 D D
Itsuka wa owatte shimau mono dakara

Mami plays
e|-x----------15--------x--------15-------x---------15---------15--------------10---x----------------15--|
B|-15-------------15---15---------15---15-------------15----15-----------10-----12--(12)--------15--|
G|-16------16---------16----------------16-------16----------16--------12--------12-----------12------|
d|-17---17------------17---17----------17---17---------------x-----12------------12-------12----------|
A|-17------------------x------------------17---------------------x---------------------x---------------------|
E|-x--------------------x------------------x----------------------x----------------------x---------------------|

e|-x----x-----------------------17---|
B|-x----x-------------15--17-------|
G|-7----9-----14-------------------|
d|-x----x----------------------------|
A|-5----7---------------------------|
E|-x----x---------------------------|

Chorus

G D Em C Cm
Hoshi ni naru hi made iki wo sutte ikiru no
G Bm
Shinjiru koto ni tsukaretemo
Em C Cm
Jibun wo kirai ni naranaide

G D Em C Cm
Hoshi ni naru hi made iki wo sutte ikiru no
G Bm
Umaku susumenai anata wo
Em C Cm
Daremo semetari shinai kara

Instrumental


G Bm Em C Cm (2x)


Outro Solo

(Mami)

e|--15----------------------15------------19----------15-----------|
B|-----15---------------------------(19)-------------------16-------|
G|--------14/16---5-(5)----------------------------------------17-|
d|---------------------------------------------------------------------|
A|---------------------------------------------------------------------|
E|------------------------------15-------------8---------------------|


e|-(15)(17)(19)(20)-15------17-15-------------------15-15-15------x-----|
B|----------------------------15-------15----------------------------------x-----|
G|--------------------------------------------------------------------------12----|
d|--------------------------------------------13-13-13--------------------x------|
A|----------------------------------------------------------------------------x------|
E|----------------------------------------------------------------------------x-------|

While Mami plays this, Haru plays G and Cm

End with G


Back to top Go down

Re: Chiisana Honoo chords Request
Posted on Fri Aug 12, 2016 7:43 am


lachrymosewinter

Caless Student
Caless Student
..i checked both the music.j-total.net website and the ultimate guitar pro site..the music.j-total.net site doesn't have the lead part, but that's good enough to figure out how to play the song..thanks for the links..

Back to top Go down