Sisters Guitar Chords/Tabs
Posted on Sun Jul 17, 2016 3:54 am


TwinKasai

Caless Student
Caless Student
So I have no idea how to write this... If you don't understand a part or have a suggestion to write it better, please tell >_<

(h) = hammer on
(p) = pull off
(HT) = half-time

Chords:

Intro:
F Am Dm Gm
Bb F Gm C
F F
Instrumental:
F Am Dm C
Bb Am Gm C
Verse:
F Am Dm F
Bb F Gm C
F Am Dm Eb
Bb C F(Bb*) F
Pre-Chorus:
Dm C Bb F
Gm C
Chorus:
:F Am Dm Gm
Bb F Gm C:
After Chorus:
F Am Dm C
Bb Am Gm C
Thing after 1st AC:
(HT)F5 A5
D5/C5 Bb/C(HT)
Pre-Chorus
Chorus
After Chorus
Thing after 2nd AC:
F Am Dm Gm
Bb F Gm/Am Bb/C
Chorus x2
End on F
*Is anticipated before the 2nd F
Tab:

Fill 1(Played during Instrumental and Last Chorus):
|--------------------------------------------------------------------------------------
|-------10-13-10---------10-14-10--------10-13-10-10-12-10-9(h)10(p)9--------
|10-12------------10-12------------10-12------------------------------------10-12-
|--------------------------------------------------------------------------------------
|-------------------------------------------------------------------------------
|-------------------------------------------------------------------------------

|------------------13-12(h)13(p)12-------------------------------+-----------------------
|10-13-10-----------------------------13--------10-13-10--------+10--------------------
|-----------10-12-------------------------10-12------------10-12-+--12(p)10(p)9-9-10-
|--------------------------------------------------------------------+----------------------
|--------------------------------------------------------------------+----------------------
|--------------------------------------------------------------------+----------------------

Alternate Ending(First AC, Replaces where +'s are):
|-------13-12----
|--------------10-
|10-12-----------
|-----------------
|-----------------
|-----------------

Solo(2nd AC):
WIP
Edit: Now have some tabs up, yay :3
Will continue working on the solo, so many upbeats make for a headache to write it >_< Am starting work on Love now, will probably do the solo and this at the same time, hope you enjoy Happy

Back to top Go down

Re: Sisters Guitar Chords/Tabs
Posted on Mon Jul 18, 2016 11:03 am


Mitchan

International Performer
International Performer
http://www.wattpad.com/user/MitchanAnni
Thank you for your hard work Praise I was looking for chords/tabs for this songs!


_________________________________________________________________________________________________

                 Tears of Joy
Back to top Go down