Midnight Television Chords & Tabs
Posted on Thu Aug 05, 2010 5:09 pm


tsunvun86

Indie Artist
Indie Artist
http://tsunvun86.wordpress.com/
As usual copy and paste into Notepad Happy

SCANDAL - Midnight Television

G#m7 - 464444

Intro:
F# B
Ebm B C# G#m7 (x4)

Verse:
Ebm B C# G#m7 (x6)

Pre-Chorus:
E Ebm
E Ebm F#
E Ebm
Ebm

Chorus:
F# Bbm B C#
F# Ebm
B C#
Bbm Ebm (x3)
B C#
F# C# Ebm )
Bbm B } (x2)
Bbm B C# )

F# Bbm B C#

Instrumental
Ebm B C# G#m7 (x2)

repeat Verse

repeat Pre-Chorus

Chorus:
F# Bbm B C#
F# Ebm
B C#
Bbm Ebm (x3)
B C#
F# C# Ebm )
Bbm B } (x4)
Bbm B C# )

Outro:
F# Bbm B C# (x2)
F#


Intro/Instrumental Solo:
----------14--13----14--13----14--13----------------14--13----14--13----14--13-14-16--
-16-14-16--------14--------14--------16-14-16-14-16--------14--------14---------------
--------------------------------------------------------------------------------------
--------------------------------------------------------------------------------------
--------------------------------------------------------------------------------------
--------------------------------------------------------------------------------------

(instrumental starts here..)
----------14--13----14--13----14--13----------------14--13-14-16--14-16-18------------
-16-14-16--------14--------14--------16-14-16-14-16-----------------------------------
--------------------------------------------------------------------------------------
--------------------------------------------------------------------------------------
--------------------------------------------------------------------------------------
--------------------------------------------------------------------------------------

Verse:
Ebm B C# G#m7
--------------------------------
--------------------------------
-----3-----4-------6---------4-- (x4)
---4-----4---4---6---6-----4----
-6-----2-------4---------6------
-----------------------4--------

Outro:
---------------------------------------------------------------------------------
---------------------------------------------------------------------------------
-------6----------6--------6--4/6-6-4-4-3-3------------6----------6--------6-----
-4-3-4----3-4-3-4----4-3-4------------------6-6--4-3-4----3-4-3-4----4-3-4-------
---------------------------------------------------------------------------------
---------------------------------------------------------------------------------

------------------------------------------------------------
-4--6-4-----------------------------------------------------
--------6-4-3-----------------------------------------------
--------------6-4-------------------------------------------
------------------------------------------------------------
------------------------------------------------------------


Chords & Tabs by,
tsunvun86 @ SCANDAL HEAVEN


_________________________________________________________________________________________________

Chords & Tabs Blog
Youtube Channel - tsun3vun86
~Know Music, Know Life~
Back to top Go down

Re: Midnight Television Chords & Tabs
Posted on Thu Aug 05, 2010 7:07 pm


Noodles

Moderator
Moderator
Gonna try it in a few, +1 as always and thanks tsun!

Added to the list.


_________________________________________________________________________________________________
Back to top Go down

Re: Midnight Television Chords & Tabs
Posted on Thu Aug 05, 2010 10:06 pm


d3nise

International Performer
International Performer
http://www.haritomi.deviantart.com
woaaah~hayai~
arigato tsun-sama~ Peace Onion


_________________________________________________________________________________________________

"...most people die never realizing the dream of their lives...”


l DeviantArt ll Tumblr l
Back to top Go down

Re: Midnight Television Chords & Tabs
Posted on Thu Aug 05, 2010 11:18 pm


YLenalee

Indie Artist
Indie Artist
Ooooh arigatou !!!
I really wanted to play this song when I heard it ^^


_________________________________________________________________________________________________

....
Back to top Go down

Re: Midnight Television Chords & Tabs
Posted on Fri Aug 06, 2010 1:25 am


sigit_mishi

International Performer
International Performer
http://japanslot.com
waw...arigatou tsunvun-san..

i try to find out this cord...but i never found it..

i very like this song...thanks...


_________________________________________________________________________________________________


Visit Our Blog At
Japanslot
Back to top Go down

Re: Midnight Television Chords & Tabs
Posted on Fri Aug 06, 2010 1:45 am


Rinshei

International Performer
International Performer
http://japanslot.blogspot.com/
owh, arigatou, i really like this song when i heard that...

this song is very nice..


_________________________________________________________________________________________________




Visit Our Blog At Japanslot
Back to top Go down

Re: Midnight Television Chords & Tabs
Posted on Fri Aug 06, 2010 4:25 am


vincendadiaz

International Performer
International Performer
Woah, Arigato ne.
Let's play along!

Back to top Go down

Re: Midnight Television Chords & Tabs
Posted on Fri Aug 06, 2010 4:59 am


mist ~ rock

Caless Student
Caless Student
Domo arigato Tsunvun-san!

Back to top Go down

Re: Midnight Television Chords & Tabs
Posted on Fri Aug 20, 2010 2:34 am


chopstickattack

Shiroten Performer
Shiroten Performer
HORA! cool!

Back to top Go down

Re: Midnight Television Chords & Tabs
Posted on Wed Dec 08, 2010 6:17 pm


gabe_majere

Shiroten Performer
Shiroten Performer
Thank you so much, i love this song
Happy

Back to top Go down

Re: Midnight Television Chords & Tabs
Posted on Mon Dec 20, 2010 2:18 am


noctis

Shiroten Performer
Shiroten Performer
as expected of mah IDOL thanks man.!

Back to top Go down

Re: Midnight Television Chords & Tabs
Posted on Sun Dec 26, 2010 8:06 pm


zeon

Caless Student
Caless Student
I'm not sure if its me or not, but i really cant get this song correct by using tsun's chords.. D: any halp? D:

Back to top Go down