tsunvun86

Indie Artist
Indie Artist
http://tsunvun86.wordpress.com/
@Eugene: You are absolutely correct. Counting is my favourite part in transcribing D:

Fixed tabs.

EDIT: Added Playboy PartII

EDIT 2: Added Shoujo M


_________________________________________________________________________________________________
Back to top Go down

yuujin_21

Administrator
Administrator
Update!Tsun added in Playboy Part II and Shoujo M tabs.

Otsukaresama desu!


_________________________________________________________________________________________________
"Bokaru HARUNA desu!"
"Gitaa MAMI desu!"
"Beesu TOMOMI desu!"
"Doraamusu RINA desu!"
Back to top Go down

Noodles

Global Moderator
Global Moderator
http://atarashiimusic.com
Sugeeeeeeeee Shoujo M is kickass! Thanks for the hardwork tsun!


_________________________________________________________________________________________________
Back to top Go down

kirei_kawaii^-^

Shiroten Performer
Shiroten Performer
OMG! Happy Thank you very much for the Playboy Part II chords/tabs tsunvun86! Praise

Back to top Go down

haritomi.denise

International Performer
International Performer
http://www.instagram.com/haritomi
wah~
so many new ones Sankyu Tsun-sama~ Tears of Joy


_________________________________________________________________________________________________

"...most people die never realizing the dream of their lives...”


l DeviantArt ll Tumblr l
Back to top Go down

tsunvun86

Indie Artist
Indie Artist
http://tsunvun86.wordpress.com/
Hi-Hi-Hi!!!


_________________________________________________________________________________________________
Back to top Go down

Rina's Knight

International Performer
International Performer
Sankyu tsunvun8~san, Eugene~san, .... Praise

Lets Play.... Dance EVERYBODY SAY YEAH....


_________________________________________________________________________________________________



Rina..... "KIMI WA ORE GA MAMORU...." Rage ~HENSHIN~
Back to top Go down

chopstickattack

Shiroten Performer
Shiroten Performer
LOL! Tab overload!!!!!! (FYI, a GREAT thing) Nice One

Back to top Go down

YLenalee

Indie Artist
Indie Artist
I'm not sure but I think there is a problem at the end of the solo of Hougako1H

tsun-san put

----------------------------------------------------------------------------------------
--------------------------16/18b16-13---------------------------------------------------
-----13------12-----12-13-------------15-12-----------------12-13-----13----14-13----13-
-15------14------15----------------------------------13--15--------13----13-------13----
--------------------------------------------16-15-16------------------------------------
----------------------------------------------------------------------------------------

But I think it's
----------------------------------------------------------------------------------------
--------------------------16/18b16-13---------------------------------13---------14--13---------
-----13------12-----12-13-------------15-12-----------------12-13-----13---------------13---
-15------14------15----------------------------------13--15-----------------------------
--------------------------------------------16-15-16------------------------------------
----------------------------------------------------------------------------------------

Maybe I'm wrong so I want someone to confirm it


_________________________________________________________________________________________________

....
Back to top Go down

tsunvun86

Indie Artist
Indie Artist
http://tsunvun86.wordpress.com/
@YLenaLee: I re-listened to it and I'm sure there are more notes than that.


_________________________________________________________________________________________________
Back to top Go down

YLenalee

Indie Artist
Indie Artist
@tsunvun Yes you are right but what I wanted to say is, are there any note to play in the B string ?
Sorry I can't explain properly what I want to say Sweating
If you don't understand, it's not a problem, forget it.


_________________________________________________________________________________________________

....
Back to top Go down

tsunvun86

Indie Artist
Indie Artist
http://tsunvun86.wordpress.com/
@YLenaLee: Thanks I totally see it now. The ending portion is on the wrong strings. I shifted them all 1 string up.

Sorry about that guys. Happens to me a lot, tabbing on the wrong strings..... OTL

----------------------------------------------------------------------------------------
--------------------------16/18b16-13---------------------------------13----14-13----13-
-----13------12-----12-13-------------15-12-----------------12-13--13----13-------13----
-15------14------15----------------------------------13--15-----------------------------
--------------------------------------------16-15-16------------------------------------
----------------------------------------------------------------------------------------


_________________________________________________________________________________________________
Back to top Go down

phianzzz2

Caless Student
Caless Student
Picture
wah,,you make the tabs by yourself??
cool..!
i obsessed to SCANDAL, but never can make any tab except "DOLL". i hav to study hard to be a greater guitar player..

Hard Work

Back to top Go down

noctis

Shiroten Performer
Shiroten Performer
awesome.. imma try this!

Back to top Go down

yukihiro17

Caless Student
Caless Student
http://www.scandal-baby.forospanish.com
Thanks tsunvun86

Back to top Go down

Nana09

Caless Student
Caless Student
Thank you very much. Amazed

Back to top Go down

porcupine_tree

Mainstream Artist
Mainstream Artist
http://chris87.multiply.com
Tsunny, how do you do it? You're good and you're waayy too fast, how do you tab SCANDAL's songs this quickly? Amazed Onion Whip


_________________________________________________________________________________________________
http://www.musiccube.jp/images/goods_img/goods01_p02d.gif
Back to top Go down

tsunvun86

Indie Artist
Indie Artist
http://tsunvun86.wordpress.com/
Hey Porcy. The girls helped me out Tongue SCANDAL POWER.
Nah I just did it like usual.


_________________________________________________________________________________________________
Back to top Go down

Rafayui

Caless Student
Caless Student
Thank for sharing friend.... Nice One


_________________________________________________________________________________________________



[center]

[/center]
Back to top Go down

porcupine_tree

Mainstream Artist
Mainstream Artist
http://chris87.multiply.com
Tsunny my friend you are a genius Nice One Have you ever considered going pro? LOVE


_________________________________________________________________________________________________
http://www.musiccube.jp/images/goods_img/goods01_p02d.gif
Back to top Go down

^^DOMO
Posted on Thu Sep 30, 2010 2:16 pm


mist ~ rock

Caless Student
Caless Student
sugoi ne..thanks a lot tsunvun! Praise

Back to top Go down

ryotaro_tomomi

Caless Student
Caless Student
i hope you have a bass tab for houkago 1h

Back to top Go down

tsunvun86

Indie Artist
Indie Artist
http://tsunvun86.wordpress.com/


_________________________________________________________________________________________________
Back to top Go down

Jibba

Mainstream Artist
Mainstream Artist
http://www.youtube.com/user/xJibba?feature=mhee
Thanks so much!!!!!!
By the way are you from Melbourne?

Back to top Go down

tsunvun86

Indie Artist
Indie Artist
http://tsunvun86.wordpress.com/
You're welcome Happy
Be careful not to go off topic or the mods will be upset Tongue

Back to top Go down