mikan

Mainstream Artist
Mainstream Artist
http://mikanhannille.com/
Paste to notepad for better view

~ - Vibrato
/ - Slide up
\ - Slide down
h - Hammer

EVERYBODY SAY YEAH
Spoiler:

It's up to you if you slap and pop the intro, verse 1, chorus, solo and outro parts or just finger pick it.

Intro:

|------------------------------8---8---8---8---7---7---7---7---6---6---6---6--|
|-----------3---3---3---3-----------------------------------------------------|
|--------------------------3/6---6---6---6---5---5---5---5---4---4---4---4----|
|--1/7\1--1---1---1---1-------------------------------------------------------|

|-----------------------8---8---8---8---7---7---7---7---6---6-------|
|----3---3---3---3--------------------------------------------------|
|-------------------3/6---6---6---6---5---5---5---5---4---4----4-4--|
|--1---1---1---1----------------------------------------------------|


Verses I:

|-------------------------------------------------------------------|
|----3---3---3---3---6---6---6---6---8---8---8---8---3---3---3---3--|
|-------------------------------------------------------------------|
|--1---1---1---1---4---4---4---4---6---6---6---6---1---1---1---1----|

|-------------------------------------------------------------------|
|----3---3---3---3---6---6---6---6---8---8---8---8---3---3---3---3--|
|-------------------------------------------------------------------|
|--1---1---1---1---4---4---4---4---6---6---6---6---1---1---1---1----|

|--------------------------------------------------|
|--------------------------------------------------|
|--------------------11-8-11-11-8-6-8-8-6-11-11-8--|
|--4(x8)--6(x8)-6/10-------------------------------|

|-------------------------|
|-------------------------|
|----------------3(x10?)--|
|--4(x8)--6(x8)-----------|


Chorus:

|-------------------------------------7---7---7---7---6---6---8---8--|
|----3---3---3---3---6---6---6---6-----------------------------------|
|-----------------------------------5---5---5---5---4---4---6---6----|
|--1---1---1---1---4---4---4---4-------------------------------------|

|-------------------------------------7---7---7---7---6---6---8---8--|
|----3---3---3---3---6---6---6---6-----------------------------------|
|-----------------------------------5---5---5---5---4---4---6---6----|
|--1---1---1---1---4---4---4---4-------------------------------------|

|---------------------------------------|
|---------------------------------------|
|---------------------------------------|
|--1-1-4-4-4/6-4-6-1---1-1-4-4-4/6-4-6--|


Verse II:

[Pause]

|-------------------------|
|-------------------------|
|--6-8-8--8---------------|
|-----------4-4--4-6-6-6--|

|--------------------------------------------------------------------------15-------------------|
|-----------------------------------------------------------------------------15----------------|
|---------------8-8-6-8--8-8-6---8-8-6-8--8-8-6---------------5/12\5--5/15-------15~~\3--3(x4)--|
|--4(x8)-6(x8)-----------------4----------------4-4(x8)-6(x8)-----------------------------------|


Chorus:

|--------------------------------------------7---7---7---7---6---6---8---8--|
|-----------3---3---3---3---6---6---6---6-----------------------------------|
|------------------------------------------5---5---5---5---4---4---6---6----|
|--1/7\1--1---1---1---1---4---4---4---4-------------------------------------|

|-------------------------------------7---7---7---7---6---6---8---8--|
|----3---3---3---3---6---6---6---6-----------------------------------|
|-----------------------------------5---5---5---5---4---4---6---6----|
|--1---1---1---1---4---4---4---4-------------------------------------|


Guitar solo:

|-----------------------------------------------------6---6---8---8--|
|----3---3---3---3---6---6---6---6---8---8---8---8-------------------|
|---------------------------------------------------4---4---6---6----|
|--1---1---1---1---4---4---4---4---6---6---6---6---------------------|

|-----------------------------------------------------6---6---8---8--|
|----3---3---3---3---6---6---6---6---8---8---8---8-------------------|
|---------------------------------------------------4---4---6---6----|
|--1---1---1---1---4---4---4---4---6---6---6---6---------------------|


Bridge:

|-------------------------------------------------|
|-------------------------------------------------|
|--4(X4)-3(X4)-1(X8)-3-4(X4)-3(X4)-1(X8)-3(X10?)--|
|-------------------------------------------------|


chorus;

|----------------------------------------------8------------------|
|-----------------------------------------8h10---1(x4)------------|
|------------------------------------------------------1-3--------|
|--1-1/6-6-6\1-1-1/6-6 6\1 1-1/6-6-6\1-1-------------------1/7\1--|

|-------------------------------------7---7---7---7---6---6---8---8--|
|----3---3---3---3---6---6---6---6-----------------------------------|
|-----------------------------------5---5---5---5---4---4---6---6----|
|--1---1---1---1---4---4---4---4-------------------------------------|

|-------------------------------------7---7---7---7---6---6---8---8--|
|----3---3---3---3---6---6---6---6-----------------------------------|
|-----------------------------------5---5---5---5---4---4---6---6----|
|--1---1---1---1---4---4---4---4-------------------------------------|

|-----------------------------------------|
|-----------------------------------------|
|-----------------------------------------|
|--1-1-4-4-4/6-4-6-1---1-1-4-4-4/6-4-6-1--|

|-----------------------------------------|
|-----------------------------------------|
|-----------------------------------------|
|--1-1-4-4-4/6-4-6-1---1-1-4-4-4/6-4-6-1--|


Outro:

|-----------------------8---8---8---8---7---7---7---7---6---6---6---6--|
|----3---3---3---3-----------------------------------------------------|
|-------------------3/6---6---6---6---5---5---5---5---4---4---4---4----|
|--1---1---1---1-------------------------------------------------------|

|-----------------------8---8---8---8---7---7---7---7---6---6---6---6---------|
|----3---3---3---3------------------------------------------------------------|
|-------------------3/6---6---6---6---5---5---5---5---4---4---4---4-----------|
|--1---1---1---1-------------------------------------------------------1(x8)--|


Tabbed by Hessler @Scandal Heaven

Houkago H1
Spoiler:

Intro:
|-------------------------------|
|--6---6------------------------|
|--------4-3-4-4/6---6-6/8---8--|
|----4-------------6-------8----|

|-------------------------------|
|--6----------------------------|
|------6-4-3-4-4/6---6-6/8---8--|
|----4-------------6-------8----|

|-------------------------------|
|-------------------------------|
|--3-3-3-4-3-4-4/7---7-7/8---8--|
|------------------5-------6----|

|---------------------------|
|--6------------------------|
|------6-4-3-4-4/6---6------|
|----4-------------6---0-2--|


Verse I:

[Pause]

|-------------------------------1-------------1--------------------------|
|-----------4--4--4-----------1---1---------1---1------------------------|
|--3-4-----4--4--4---3-4--1-4-------4-1-1-4-------4-1-3-1-3-3-4---4-3-1--|
|------2--------------------------------------------------------4--------|


Chorus:
|--------------------------------------------------------------------|
|-------6-6-3-3-------------------------6-6-3-3----------------------|
|--4-4----------4-4-----6-6-3-3-----4-4---------4-4-----6-6-3-3------|
|-------------------4-4---------4-4-----------------4-4---------4-4--|

|-----------------------------------------------------------------|
|------------------------------6-6---------------------------6-6--|
|--4-4-1-1-6-6-7-7-8-8-3-3-6-6-----4---4-4/6---6-----4-4-6-6------|
|------------------------------------4-------6---4-4--------------|

|--------------------------------------------------------------------|
|-------6-6-3-3-------------------------6-6-3-3----------------------|
|--4-4----------4-4-----6-6-3-3-----4-4---------4-4-----6-6-3-3------|
|-------------------4-4---------4-4-----------------4-4---------4-4--|

|----------------------------------------------------|
|------------------------------6-6-------------------|
|--4-4-1-1-6-6-7-7-8-8-3-3-6-6-----4---4-4/6---6--4--|
|------------------------------------4-------6-------|


Intro:
|-------------------------------|
|--6---6------------------------|
|--------4-3-4-4/6---6-6/8---8--|
|----4-------------6-------8----|

|---------------------------|
|--6------------------------|
|------6-4-3-4-4/6---6------|
|----4-------------6---0-2--|


Verse II:

[Pause]

|----6-8-10---6------------|
|--6--------6--------------|
|----------------4-3-------|
|---------------------5-4--|


Guitar solo:
|--------------------------------------------------------------------|
|-------6-6-3-3-------------------------6-6-3-3----------------------|
|--4-4----------4-4-----6-6-3-3-----4-4---------4-4-----6-6-3-3------|
|-------------------4-4---------4-4-----------------4-4---------4-4--|

|-----------------------------------------------------------------|
|------------------------------6-6---------------------------6-6--|
|--4-4-1-1-6-6-7-7-8-8-3-3-6-6-----4---4-4/6---6-----4-4-6-6------|
|------------------------------------4-------6---4-4--------------|


Bridge:

|---------------------------------------------------------------1------------1--------------------------|
|------------------------4-------4----------------------------1--1---------1---1------------------------|
|--3(x7?)-4(x7?)-----2/4-----2/4----3(x7?)-4(x7?)---------1-4------4-1-1-4-------4-1-3-1-3-3-4---4-3-1--|
|----------------2-2-------2-----------------------2(x7?)--------------------------------------4--------|


Chorus:

[Pause]

|--------------------------------------------|
|---------------------------------------6-6--|
|--1/6\1-4-3-8-6-4-[Pause]------4-4-6-6------|
|---------------------------4-4--------------|

|--------------------------------------------------------------------|
|-------6-6-3-3-------------------------6-6-3-3----------------------|
|--4-4----------4-4-----6-6-3-3-----4-4---------4-4-----6-6-3-3------|
|-------------------4-4---------4-4-----------------4-4---------4-4--|

|-----------------------------------------------------------------|
|------------------------------6-6---------------------------6-6--|
|--4-4-1-1-6-6-7-7-8-8-3-3-6-6-----4---4-4/6---6-----4-4-6-6------|
|------------------------------------4-------6---4-4--------------|

|------------------------------------------------------|
|------------------------------6-6-----------11-11-11--|
|--4-4-1-1-6-6-7-7-8-8-3-3-6-6-----4--4-4/11-----------|
|------------------------------------------------------|


Outro:

|-------------------------------|
|--6---6------------------------|
|--------4-3-4-4/6---6-6/8---8--|
|----4-------------6-------8----|

|-------------------------------|
|--6----------------------------|
|------6-4-3-4-4/6---6-6/8---8--|
|----4-------------6-------8----|

|-------------------------------|
|-------------------------------|
|--3-3-3-4-3-4-4/7---7-7/8---8--|
|------------------5-------6----|

|---------------------------------------------------|
|--6-------------------------------------6/8-6-5-6--|
|------6-4-3-4--------------------------------------|
|----4---------3/6-4-3-4-4/6-4-3-4-3/8\3------------|

Tabbed by Hessler @ Scandal Heaven

Aitai
Spoiler:

Intro:
|----------------------------------------|
|----------------------------------------|
|--1/9\1--4(x7)-6(x7)-------------6(x7)--|
|---------------------4(x7)-1(x4)--------|

|---------------------------|
|---------------------------|
|--4(x7)-6(x7)-4(x7)-6(x7)--|
|---------------------------|


Verse I:

[Pause]

|-------------------------------------------------|
|-------------------------------------------------|
|------------------3(x7)-8(x7)-6(x7)-4(x7)-6(x7)--|
|--1/4-4(x8)-3(x7)--------------------------------|

|--------------------------------------------------------------------|
|--------------------------------------------------------------------|
|--3(x4?)-3-1-3-3-4(x4)-3-3-3-1-1(x8?)-3(x4?)-4-4-3-3-1-1-0-0-6-6-8--|
|--------------------------------------------------------------------|


Chorus:

|-------------------------------------------|
|--------6---------8------------------------|
|--4(x7)---4-6(x7)---6-------6---------6----|
|-----------------------4(x7)--4--1(x7)--1--|

|-------------------------------|
|--------6---------8------------|
|--4(x7)---4-6(x7)---6----------|
|----------------------4(x16?)--|

|------------------------------------------------------------------------|
|--------6---------8-----------------------------------------------------|
|--4(x7)---4-6(x7)---6------------6(x7)-4(x7)-6(x7)-------------11(x6?)--|
|----------------------4(x7)-1(x4)-------------------4(x6?)-4/11---------|



Interlude:

|------6----------------------|
|----4---4-6---4-6-6-6-4-6-4--|
|-----------------------------| x3
|--4---------4----------------|

|------6---------|
|----4---4-6-----|
|----------------|
|--4---------4\--|


Verse II:

|-------------5(x5?)--5-5-------------------------------|
|--1/6-5(x6?)-------------6-6---------------------------|
|------------------------------8(x7)-6(x7)-4(x7)-6(x7)--|
|-------------------------------------------------------|

|------------------------------------------------------------------------------------|
|--6-6-5-5-3-3-1-1-------------------------------------------------------------------|
|------------------4-4-3-3-1-1-0-0---------3-3-1-1-0-0------8(x7)-6(x7)-4(x7)-6(x7)--|
|----------------------------------3-3-3-3-------------3-3---------------------------|

|--------------------------------------------------------------------|
|--------------------------------------------------------------------|
|--3(x4?)-3-1-3-3-4(x4)-3-3-3-1-1(x8?)-3(x4?)-4-4-3-3-1-1-0-0-6-6-8--|
|--------------------------------------------------------------------|


Chorus:


|-------------------------------------------|
|--------6---------8------------------------|
|--4(x7)---4-6(x7)---6-------6---------6----|
|-----------------------4(x7)--4--1(x7)--1--|

|-------------------------------|
|--------6---------8------------|
|--4(x7)---4-6(x7)---6----------|
|----------------------4(x16?)--|

|------------------------------------------------------------------------|
|--------6---------8-----------------------------------------------------|
|--4(x7)---4-6(x7)---6------------6(x7)-4(x7)-6(x7)-------------11(x6?)--|
|----------------------4(x7)-1(x4)-------------------4(x6?)-4/11---------|


Guitar solo:

|--------------------------6----------6-8-6--------------------|
|----------------------6/8---8\---6/8-------6\-6(x7?)-4(x7?)---|
|--6-4/6-4-3-4-6-4/6-4----------6------------------------------|
|--------------------------------------------------------------|


Bridge:

|------------------------------------------------------------------------|
|---------------------------------------4h6-4h6--------------------------|
|----------------7(x16?)-9(x16?)-11~~-------------2/9\1---------6-6-8-8--|
|--0(x8?)-2(x8?)----------------------4-----------------2-2-4-4----------|


Chorus:

|------6-----6-4---------------------------------------|
|--6-6---6-6-----6-4-------6-------8-------------------|
|--------------------4(x7)---6(x7)---------6--------3--|
|------------------------------------4(x7)----1(x7)----|

|--------------------------------------6-----6-4------|
|--------6---------8-----------4-4-6-6---6-6-----6-4--|
|--4(x7)---4-6(x7)---6-----6-6------------------------|
|----------------------4-4----------------------------|

|-------------------------------------------------------------------------|
|--------6---------8------------------------------------------------------|
|--4(x7)---4-6(x7)---6-------------6(x7)-4(x7)-6(x7)-------------11(x6?)--|
|----------------------4(x7)-1(x4)-------------------4(x6?)-4/11----------|


Outro:


|---------------------------|
|---------------------------|
|--4(x8)-6(x8)--------------|
|--------------4(x8)-1(x8)--|

|-----------------------------------|
|-----------------------------------|
|--4(x8)-6(x8)-------------11(x6?)--|
|--------------4(x6?)-4/11----------|

|----------------------------------|
|----------------------------------|
|--4(x8)-6(x8)-------------6(x3?)--|
|--------------4(x8)-1(x4)---------|

|-----------------------------------|
|-----------------------------------|
|--4(x8)-6(x8)-------------11(x6?)--|
|--------------4(x6?)-4/11----------|


Tabbed by Hessler @ Scandal Heaven

Shoujo M
Spoiler:

Intro:

|------------------------------------4-4--|
|---------5-5-3-3------------5-5-3-3------|
|-----------------5-5---------------------|
|--3(x5)---------------3(x5)--------------|

|--------------------------------------|
|---------5-5-3-3----------------------|
|--3(x5)----------5-2-3-2-3-2-3-5-3-2--|
|--------------------------------------|

|------------------------------------4-4--|
|---------5-5-3-3------------5-5-3-3------|
|-----------------5-5---------------------|
|--3(x5)---------------3(x5)--------------|

|----------------------------------|
|---------5-5-3-3------------------|
|--3(x5)----------5-2-3-2-3-2-3-5--|
|----------------------------------|

|------------------------------------4-4--|
|---------5-5-3-3------------5-5-3-3------|
|-----------------5-5---------------------|
|--3(x5)---------------3(x5)--------------|

|--------------------------------------|
|---------5-5-3-3----------------------|
|--3(x5)----------5-2-3-2-3-2-3-5-3-2--|
|--------------------------------------|



Verse I:

|-------------------------------4-4------|
|------5-5-3-3----------5-5-3-3----------| x2
|--------------5-5-----------------------|
|--3-3--------------3-3------------------|

|------------------------------------|
|------------------------------------|
|------5-5-3-3----------5-5-3-3------|
|--------------5-5--------------5-5--|
|--3-3--------------3-3--------------|


Verse II:


|-------------------------------4-4------|
|------5-5-3-3----------5-5-3-3----------| x2
|--------------5-5-----------------------|
|--3-3--------------3-3------------------|

|------------------------------------|
|------------------------------------|
|------5-5-3-3----------5-5-3-3------|
|--------------5-5--------------5-5--|
|--3-3--------------3-3--------------|


Chorus:

|-------------------------------4-4------|
|------5-5-3-3----------5-5-3-3----------|
|--------------5-5-----------------------|
|--3-3--------------3-3------------------|

|------------------------------------|
|------5-5-3-3----------5-5-3-3-4-4--|
|--------------5-5-------------------|
|--3-3--------------3-3--------------|

|-------------------------------4-4------|
|------5-5-3-3----------5-5-3-3----------|
|--------------5-5-----------------------|
|--3-3--------------3-3------------------|

|--------------------------------|
|------5-5-3-3----------5-5------|
|--------------5-5---------------|
|--3-3--------------3-3-----3-2--|

|---------------------------------------------|
|---------------------------------------------|
|--7(x6)-5(x5)-3(x5)-------------7(x7)-8(x4)--|
|--------------------3(x4)-2(x4)--------------|

[Pause]

Intro:

|------------------------------------4-4--|
|---------5-5-3-3------------5-5-3-3------|
|-----------------5-5---------------------|
|--3(x5)---------------3(x5)--------------|

|--------------------------------------|
|---------5-5-3-3----------------------|
|--3(x5)----------5-2-3-2-3-2-3-5-3-2--|
|--------------------------------------|


Verse III:

[Pause]



Chorus:

|-------------------------------4-4------|
|------5-5-3-3----------5-5-3-3----------|
|--------------5-5-----------------------|
|--3-3--------------3-3------------------|

|------------------------------------|
|------5-5-3-3----------5-5-3-3-4-4--|
|--------------5-5-------------------|
|--3-3--------------3-3--------------|

|-------------------------------4-4------|
|------5-5-3-3----------5-5-3-3----------|
|--------------5-5-----------------------|
|--3-3--------------3-3------------------|

|--------------------------------|
|------5-5-3-3----------5-5------|
|--------------5-5---------------|
|--3-3--------------3-3-----3-2--|

|---------------------------------------------|
|---------------------------------------------|
|--7(x6)-5(x5)-3(x5)-------------7(x7)-8(x4)--|
|--------------------3(x4)-2(x4)--------------|


Guitar Solo:

|-------------------------------4-4------|
|------5-5-3-3----------5-5-3-3----------|
|--------------5-5-----------------------|
|--3-3--------------3-3------------------|

|------------------------------------|
|------5-5-3-3----------5-5-3-3-4-4--|
|--------------5-5-------------------|
|--3-3--------------3-3--------------|

|-------------------------------4-4------|
|------5-5-3-3----------5-5-3-3----------|
|--------------5-5-----------------------|
|--3-3--------------3-3------------------|

|------------------------------------|
|------5-5-3-3----------5-5-3-3-4-4--|
|--------------5-5-------------------|
|--3-3--------------3-3--------------|



Bridge:

|----------------------------7--7--7--7--7--7--7--7--|
|----------------------------------------------------|
|--10-8-6-5--10(x7)-8(x7)--5--5--5--5--5--5--5--5----|
|----------------------------------------------------|



Chorus:

|-------------------------------4-4------|
|------5-5-3-3----------5-5-3-3----------|
|--------------5-5-----------------------|
|--3-3--------------3-3------------------|

|------------------------------------|
|------5-5-3-3----------5-5-3-3-4-4--|
|--------------5-5-------------------|
|--3-3--------------3-3--------------|

|-------------------------------4-4------|
|------5-5-3-3----------5-5-3-3----------|
|--------------5-5-----------------------|
|--3-3--------------3-3------------------|

|--------------------------------|
|------5-5-3-3----------5-5------|
|--------------5-5---------------|
|--3-3--------------3-3-----3-2--|

|---------------------------------------------|
|---------------------------------------------|
|--7(x6)-5(x5)-3(x5)-------------7(x7)-8(x8)--|
|--------------------3(x4)-2(x4)--------------|


Outro:

|-------------------------------4-4------|
|------5-5-3-3----------5-5-3-3----------|
|--------------5-5-----------------------|
|--3-3--------------3-3------------------|

|------------------------------------|
|------5-5-3-3----------5-5-3-3-4-4--|
|--------------5-5-------------------|
|--3-3--------------3-3--------------|

|-------------------------------4-4------|
|------5-5-3-3----------5-5-3-3----------|
|--------------5-5-----------------------|
|--3-3--------------3-3------------------|

|------------------------------------|
|------5-5-3-3----------5-5-3-3-4-4--|
|--------------5-5-------------------|
|--3-3--------------3-3--------------|

|-------------------------------4-4------|
|------5-5-3-3----------5-5-3-3----------|
|--------------5-5-----------------------|
|--3-3--------------3-3------------------|

|------------------------------------|
|------5-5-3-3----------5-5-3-3-4-4--|
|--------------5-5-------------------|
|--3-3--------------3-3--------------|

|-------------------------------4-4------|
|------5-5-3-3----------5-5-3-3----------|
|--------------5-5-----------------------|
|--3-3--------------3-3------------------|

|------------------------------------|
|------5-5-3-3----------5-5-3-3-4-4--|
|--------------5-5-------------------|
|--3-3--------------3-3--------------|

Tabbed by Hessler @ Scandal Heaven



Last edited by hessler on Mon Aug 09, 2010 7:03 pm; edited 1 time in total

Back to top Go down

SourChicken

Shiroten Performer
Shiroten Performer
http://www.youtube.com/user/Bassection
Nice, that was quick.

Back to top Go down

akuma_tsubasa

Mainstream Artist
Mainstream Artist
woah super fast Clap thanks so much Nice One


_________________________________________________________________________________________________

“It’s allright to be different.
It’s allright to be lacking something.
It’s allright not to be perfect.”
- Quoted by RINA of SCANDAL
Back to top Go down

bemnage

Mainstream Artist
Mainstream Artist
http://www.youtube.com/user/bemnage?feature=mhum
nice tabs hessler! thanks! Nice One

Back to top Go down

rock_chick

Mainstream Artist
Mainstream Artist
sankyu hesss LOVE


_________________________________________________________________________________________________



Back to top Go down

mikan

Mainstream Artist
Mainstream Artist
http://mikanhannille.com/
edited guys. :3 sorry for the minor typos. goin to update this tonight or tom night.


_________________________________________________________________________________________________
Back to top Go down

MadOrange

Shiroten Performer
Shiroten Performer
I've been waiting for this!!! thank u so much!!!!>:D Nice One


_________________________________________________________________________________________________

                                                                                                                                            otakumi
Back to top Go down

chopstickattack

Shiroten Performer
Shiroten Performer
whoa!

Back to top Go down

mikan

Mainstream Artist
Mainstream Artist
http://mikanhannille.com/
found some mistakes but I cant edit it coz I dont have time Cry sorry guys. I think I can resume tabbing the week after next. Im super duper ultra mega busy this days Shy I barely have the time just to stretch my fingers on my bass. Shy


_________________________________________________________________________________________________
Back to top Go down

chopstickattack

Shiroten Performer
Shiroten Performer
waiting to see your HI-HI-HI tab! One hell of a song! Ho Onion Ganbare!

Back to top Go down

haruchan

Caless Student
Caless Student
http://ainoro.livejournal.com
AITAI ♫ Dies

will be using everything ♫
thank you so much ♥

Hot

Back to top Go down

yume

Caless Student
Caless Student
http://www.youtube.com/user/butterpocky
wohoooo!!!!!!!!!^^ now i can practice on AITAI!!!!^^ thanx so much!!!^^

Thumbs Onion Nice One


_________________________________________________________________________________________________



Shout [size=24]i <3 SB!!! Shout
SECRET BASE (my band)[/size]

=yume (bass/vocal)=
=yun (guitar/vocal)=
=shekin (guitar/vocal)=
=ejort (drums/vocal)=
Back to top Go down

panettone

Caless Student
Caless Student
Thank you very much...
I seach for this a long time..
Thank you.

Back to top Go down

souichiro-san

Caless Student
Caless Student
Well,nice one.

Back to top Go down