Kagerou Bass tab [Page 1 of 1]

Kagerou Bass tab
Posted on Tue Aug 24, 2010 6:36 am


asuna

Indie Artist
Indie Artist
http://thebudgetgeek.blogspot.com
You thanked this post! -
Thanks received by this post:

Message reputation : 100% (1 vote)

copy and paste into notepad

Code:
Intro

|--------------------------------|
|--------------------------------|
|---4(x13)-2(x13)----------------|
|--------------------------------| x2

Verse

|-------------------------------------------|
|-------------------------------------------|
|-0-------22-4(x26)---0-------22-4(x26)-----|
|-------------------------2-4---------------|

|-------------------------------------------|
|-------------------------------------------|
|-0(x4)-2(x4)-4(x8)---0(x4)-2(x4)-4(x8)-----|
|-------------------------------------------|

|------------------|
|-----2------------|
|-0-4---0-2--------|
|------------------|

Chorus ("I love you")

|-----------------------------------------------------------------|
|-----------------------------------------------------------------|
|-0-0-0-0-2-2-2-0---------4-4-4-4-0-0-0-0-2-2-2-0---------4-4-4-4-|
|-----------------4-4-4-4-------------------------4-4-4-4---------|

|----------------------------------------------------------------------|
|-----2-----1-4-----------------------2-----1-4-------6----------------|
|-0-4---0-2-----2-----3-3-4---4---0-4---0-2-----2---6---6-4-4-5-5------|
|-----------------4-4-------4---4-----------------4--------------------|

Intro

Repeat Verse (except the last bar)

|------------------|
|---4-7---6-6------|
|-5-----5----------|
|------------------|

Chorus

|-----------------------------------------------------------------|
|-----------------------------------------------------------------|
|-0-0-0-0-2-2-2-0---------4-4-4-4-0-0-0-0-2-2-2-0---------4-4-4-4-|
|-----------------4-4-4-4-------------------------4-4-4-4---------|

|----------------------------------------------------------------------|
|-----2-----1-4-----------------------2-----1-4-------6----------------|
|-0-4---0-2-----2-----3-3-4---4---0-4---0-2-----2---6---6-4--2---------|
|-----------------4-4-------4---4-----------------4--------------------|

Bridge

|-----------------------------------------------------------------|
|-----------------------------------------------------------------|
|-0(x8)-2(x8)-------4(x8)---0(x8)-2(x8)-------4(x4)-5(x4)---------|
|-------------4(x8)---------------------4(x8)---------------------|


|---------------------------------------------------|
|---------------------------------------------------|
|-0(x8)-2(x8)-------4(x8)---5(x16)-6(x8)------------|
|-------------4(x8)----------------------4(x8)------|


Guitar riff

Chorus (silent Tomo solo)

|------------------------------------------|
|------------------------------------------|
|-0---2-0-----4---0---2-0---3-4--4---------|
|---------4-----4---------4-----4----------|

|----------------------------------------------------------------|
|-----2-----1-4-------6---------------2-----1-4-------6----------|
|-0-4---0-2-----2---3-----4---4---0-4---0-2-----2---6---6-4------|
|-----------------4-----4---4---4-----------------4--------------|

Chorus 2

|------------------------------------------------------------------|
|-----2-----1-4-----------------------2-----1-4-------6------------|
|-0-4---0-2-----2-----3-3-4---4---0-4---0-2-----2---6---6-4-4-5-5--|
|-----------------4-4-------4---4-----------------4----------------|

|------------------------------------------------------------------|
|-----2-----1-4-----------------------2-----1-4-------6----/999----|
|-0-4---0-2-----2-----3-3-4---4---0-4---0-2-----2---6---6-4--------|
|-----------------4-4-------4---4-----------------4----------------| (repeat chorus2)

Outro

|-------------------------------|
|-------------------------------|
|-4(x13)-2(x13)-4(x13)-5(x13)---|
|-------------------------------|

have fun!


_________________________________________________________________________________________________
http://thebudgetgeek.blogspot.com
Back to top Go down

Re: Kagerou Bass tab
Posted on Tue Aug 24, 2010 2:22 pm


yuujin_21

Administrator
Administrator
Going into 90% full-time bass nau are we? :>

Arigatou!


_________________________________________________________________________________________________
"Bokaru HARUNA desu!"
"Gitaa MAMI desu!"
"Beesu TOMOMI desu!"
"Doraamusu RINA desu!"
Back to top Go down

Re: Kagerou Bass tab
Posted on Tue Aug 24, 2010 2:54 pm


asuna

Indie Artist
Indie Artist
http://thebudgetgeek.blogspot.com
bass more fun to practise on compared to guitar Tongue

not to mention easier to tab eheheh


_________________________________________________________________________________________________
http://thebudgetgeek.blogspot.com
Back to top Go down

Re: Kagerou Bass tab
Posted on Tue Aug 24, 2010 3:07 pm


bemnage

Mainstream Artist
Mainstream Artist
http://www.youtube.com/user/bemnage?feature=mhum
^LOL
thanks asuna!
more songs to play now!
which means more trouble for my drummer Evil Grin


_________________________________________________________________________________________________


credits to lale [=3

Youtube Channel

TOMO in AFAX
TOMO: We went to the night safari. Hippopotamus.... you know? very very very......... smelly. I die.
LOL
Back to top Go down

Re: Kagerou Bass tab
Posted on Sun Apr 24, 2011 11:41 pm


RIA

Caless Student
Caless Student
Thanks asuna! I love this song Amazed

asuna wrote:bass more fun to practise on compared to guitar Tongue

haha I agree!

Back to top Go down