Playboy Part II Bass tabs
Posted on Thu Aug 26, 2010 10:19 am


asuna

Indie Artist
Indie Artist
http://thebudgetgeek.blogspot.com
You thanked this post! -
Thanks received by this post:

Message reputation : 100% (1 vote)

As usual, paste into notepad for the correct view

Code:
Intro

|--------------------------------------------------6-6-6-6-6-6-6-6--------------------|
|--8-8-8-8-8-8-8-8-------------------------------------------------6-6-6-6-6-6-7-7----|
|-------------------8-8--6-8-8--6-8-8--6-8-8-6-8--4-4-4-4-4-4-4-4---------------------|
|-6-6-6-6-6-6-6-6-------------------------------------------------4-4-4-4-4-4-5-5-----|


|--------------------------------------------------6-6-6-6-6-6-6-6---------------------|
|--8-8-8-8-8-8-8-8---------------------------------------------------------------------|
|-------------------8-8--6-8-8--6-8-8--6-8-8-6-8--4-4-4-4-4-4-4-4----------------------|
|-6-6-6-6-6-6-6-6-------------------------------------------------4-4-4-4-4-44445555---|

Verse

|-------------------------------------------------------------------------------------------------------------------|
|---------------------------------------------------------------------------------------------------7-7-8-8-8/10----|
|---------------1/11\8-8--6-8-8--6-8-8--6-8-8-6-8--6-6----6-6-----6-6----6-6---6--4-4----4-4----8-8-----------------|
|-666\1--666\1------------------------------------------6-------6------6-----6---------4------4---------------------|


|-------------------------------------------------------------------------------------------------------------------|
|---------------------------------------------------------------------------------------------------8---8---8-------|
|---------------1/11\8-8--6-8-8--6-8-8--6-8-8-6-8--6-6----6-6-----6-6----6-6---6--4-4----4-4----8-8---8---8---------|
|-666\1--666\1------------------------------------------6-------6------6-----6---------4------4---------------------|


Prechorus

|------------------------------------------------------------------------------------------------------|
|------------------------------------------------------------------------------------------------------|
|-6-6--4-6-6--4-6-6--4-6-8-6-4------------------------4-4--6-6--4-6-6--4-6-6--4-6-6-7-7-8\---/888\-----|
|------------------------------6-6--4-6-6--4-6-6--4-6--------------------------------------1-----------|


Chorus

|--------------------------------------------------8-8-8-8-----------6-6-6-6---------------------------|
|--8-8-8-8-8-8-8--------------------------------------------6-6-6-6--------------7-7-8-8-8/10----------|
|-----------------6-8-8--6-8-8--6-8-8--6-8-8-6-8--6-6-6-6-----------4-4-4-4--8-8-----------------------|
|-6-6-6-6-6-6-6-6------------------------------------------4-4-4-4-------------------------------------|


|---------------------------------------------------------------------------------------------------------------------------------|
|-------------------------------------------------------------------------7-7-8-8/10----------------------------------------------|
|-9(x16)-1(x7)-/8(x8)-6-6-6-6-6---6-6-8-8-8-8-8---8-8-9-9-9-9-9---9-9-8-8-------------6-6--4-6-6--4-6-6--4-6-6-7-7-8\---/8\-------|
|-------------------------------6---------------8---------------9-----------------------------------------------------1-------66\-|


Repeat Intro


Verse 2

|------------------------------------------------------------------------------------------------------------|
|------------------------------------------------------------------------------------------------------------|
|---------------1/11\8-8--6-8-8--6-8-8--6-8-8-6-8--6-6----6-6-----6-6----6-6---6--4-4----4-4--------/6-6-8---|
|-666\1--666\1------------------------------------------6-------6------6-----6---------4------4-1-1----------|


Repeat Pre-chorus


Chorus2

|--------------------------------------------------8-8-8-8-----------6-6-6-6---------------------------|
|--8-8-8-8-8-8-8--------------------------------------------6-6-6-6--------------7-7-8-8-8/10----------|
|-----------------6-8-8--6-8-8--6-8-8--6-8-8-6-8--6-6-6-6-----------4-4-4-4--8-8-----------------------|
|-6-6-6-6-6-6-6-6------------------------------------------4-4-4-4-------------------------------------|


|--------------------------------------------------------------------------------------------------------------------------|
|-------------------------------------------------------------------------7-7-8-8/10---------------------------------------|
|-9(x16)-1(x7)-/8(x8)-6-6-6-6-6---6-6-8-8-8-8-8---8-8-9-9-9-9-9---9-9-8-8-------------6-6--4-6-6--4-6-6--4-6-6-7-7-8(x9)---|
|-------------------------------6---------------8---------------9----------------------------------------------------------|


Bridge

|--------------------------------------------------------------------------------------------------|
|-------------------------------------------------------8-7---7-6---6-5----------------------------|
|-------------------------------------/6(x8)-8(x8)---/8-----8-----8-------------------/8(x8)-------|
|-6(x8)-5(x8)-4(x8)-3(x8)-2(x8)-1(x8)--------------6---------------------2(x16)-1(x7)--------------| (can't catch that last bit)


Chorus3


|--------------------------------------------------8-8-8-8-----------6-6-6-6---------------------------|
|-----------------------------------------------------------6-6-6-6--------------7-7-8-8-8/10----------|
|-----------------6-8-8--6-8-8--6-8-8--6-8-8-6-8--6-6-6-6-----------4-4-4-4--8-8-----------------------|
|-6-6-6\---------------------------------------------------4-4-4-4-------------------------------------|


|---------------------------------------------------------------------------------------------------------------------------------|
|-------------------------------------------------------------------------7-7-8-8/10----------------------------------------------|
|-9(x16)-8(x7)--------6-6-6-6-6---6-6-8-8-8-8-8---8-8-9-9-9-9-9---9-9-8-8-------------6-6--4-6-6--4-6-6--4-6-6-7-7-8\---/8\-------|
|--------------\1(x8)-----------6---------------8---------------9-----------------------------------------------------1-------66\-|


Outro

|----------------------------------------6-6-6-6-6-6-6-6--------------------|
|--8-8-8-8-8-8-8-8-3-3-3-3-------------------------------6-6-6-6-6-6-7-7----|
|--------------------------/8(x3)/8(x3)-4-4-4-4-4-4-4-4---------------------|
|-6-6-6-6-6-6-6-6-1-1-1-1-------------------------------4-4-4-4-4-4-5-5-----|


|------------------10------------------------------------6-6-6-6-6-6-6-6----------------------------|
|--8-8-8---8-10-88----88----------------------------------------------------------------------------|
|--------8----------------8-8--6-8-8--6-8-8--6-8-8-6-8--4-4-4-4-4-4-4-4-----------------------------|
|-6-6-6-----------------------------------------------------------------4-4-4-4-4-44445555-6\----6\-|


/ - slide up
\ - slide down

retro-old-skool your-momma's-generation-rock-n-roll! this song is too fun to play on bass Amazed

have fun!


_________________________________________________________________________________________________
http://thebudgetgeek.blogspot.com
Back to top Go down

Re: Playboy Part II Bass tabs
Posted on Wed Sep 08, 2010 3:24 pm


bemnage

Mainstream Artist
Mainstream Artist
http://www.youtube.com/user/bemnage?feature=mhum
lol now i then realise u tab it. thanks asuna!


_________________________________________________________________________________________________


credits to lale [=3

Youtube Channel

TOMO in AFAX
TOMO: We went to the night safari. Hippopotamus.... you know? very very very......... smelly. I die.
LOL
Back to top Go down

Re: Playboy Part II Bass tabs
Posted on Thu Apr 05, 2012 12:45 pm


tazul@Dr.ze

Caless Student
Caless Student
http://tazulmohd@yahoo.com
yes now can play this song can't wait to learn


_________________________________________________________________________________________________
Back to top Go down