Maboroshi Night Bass tabs
Posted on Tue Sep 14, 2010 3:56 pm


asuna

Indie Artist
Indie Artist
http://thebudgetgeek.blogspot.com
as usual, copy and paste into notepad!

Code:


Intro riff (ya!)
|------------------------------4-5-6---------------------------4-5-6---------|
|------2-4-5-6-----2---2-4-5-6---------2-4-5-6-----2---2-4-5-6---------------|
|-4/\4---------2-4---4---------------4---------2-4---4-----------------------|
|----------------------------------------------------------------------------|

Verse
|-----------------------------------------|
|-----------------------------------------|
|--4-2-1-2-4-2-4-7-9-7-6-7-9-7-6-4/\------|
|-----------------------------------------| 

repeat riff

repeat verse

repeat riff

Pre chorus

|-----------------------------------------------------------|
|-----------------------------------------------------------|
|-------/999999-------/99999--/11---/11-----------/11-------|
|-2-2-2---------2-2-2-------------4-----4-5555754-----------|

Chorus1 (and the fun begins!)

|---------------------2-3-4-----------------------------------------|
|-------------------4-------2-3-4-----5-6-7---5-------4-5-6--46-----|
|-4-4-4-4-4---2-4-2-----------------7-------7---7---6-------6-------|
|-----------4---------------------5---------------4-----------------|

|---------------------2-3-4---2-------------------------------------|
|-------------------4-------4---4-----5-6-7---5-----------4-6666----|
|-4---2-3-4---2-3-2-----------------7-------7---7-----6-6-----------|
|---4-------4---------------------5---------------4-4---------------|

|-----------------------------------|
|-----------------45454545/---------|
|-4-4-4-7-42424-7-------------------|
|-----------------------------------|

repeat riff

repeat verse

riff

verse

prechorus2

|--------------------------------------------------------------------------|
|--------------------------------------------------------------------------|
|---------------/979797-979797--------/11-11-11--12-12-12-12-13-12-11------|
|-202020-202020-----------------4-4-4--------------------------------------|

chorus 2

|---------------------2-3-4---2--------------------------------------------|
|-------------------4-------4---4-----5-6-7---5-----------4-6666-----------|
|-4---2-3-4---2-3-2-----------------7-------7---7-----6-6------------------|
|---4-------4---------------------5---------------4-4----------------------|


|---------------------2-------2----------------------------------------------|
|-------------------4---4---4---4-----------5-6-7---------4-6666-------------|
|-4---2-3-4---2-3-2-------2---------4-5-6-7-----------6-6--------------------|
|---4-------4---------------------5---------------4-4------------------------|

|-----------------------------------|
|-----------------45454545/---------|
|-4-4-4-7-42424-7-------------------|
|-----------------------------------|

Bass solo oh yeahhhh


repeat riff x2 (with distortion baby!)

Guitar solo

|-------------------------------------------4-5-6--4-4-6-----------------------|
|-----------------------------------2-4-5-6-------6-6----6-5-4-2---------------|
|-4---2-3-4-------4---2---4-------4------------------------------4-------------|
|---4-------0-2-3---4---4---0-2-3----------------------------------------------|

"ahhh! ahhh!"
|-----------------------------------|
|-----------------------------------|
|-----------------/11---------------|
|-4-0-/4-5555754--------------------|

Chorus 3

|---------------------2-3-4---2------------------------------------------------|
|-------------------4-------4---4-----5-6-7---5--------------------------------|
|-4-4-4-4-4---2-4-2-----------------7-------7---7-----6-6-/11-11-11------------|
|-----------4---------------------5---------------4-4--------------------------|


|-----------------------------------------------------------------------|
|-------------------------------------5-6-7---5-------------------------|
|-4---2-3-4---2---2---0---2---0-----7-------7---7-----6-6-/11-11-11-----|
|---4-------4---4---2---2---2---2-5---------------4-4-------------------|

|---------------------------------66666--|
|-----------------45454545-5----6--------|
|-4-4-4-7-42424-7-------------4----------|
|----------------------------------------| END (do whatever crazy stuff u want :P)


the chorus parts are especially fun Tongue


_________________________________________________________________________________________________
http://thebudgetgeek.blogspot.com
Back to top Go down

Re: Maboroshi Night Bass tabs
Posted on Tue Sep 14, 2010 4:01 pm


bemnage

Mainstream Artist
Mainstream Artist
http://www.youtube.com/user/bemnage?feature=mhum
woah! another one!
i sure hope i can contribute some day.
Thanks asuna!


_________________________________________________________________________________________________


credits to lale [=3

Youtube Channel

TOMO in AFAX
TOMO: We went to the night safari. Hippopotamus.... you know? very very very......... smelly. I die.
LOL
Back to top Go down

Re: Maboroshi Night Bass tabs
Posted on Sun Sep 26, 2010 6:00 pm


porcupine_tree

Mainstream Artist
Mainstream Artist
http://chris87.multiply.com
Thanks asuna! Btw are you going to see SCANDAL @ the AFA '10 festival in November? Amazed


_________________________________________________________________________________________________
http://www.musiccube.jp/images/goods_img/goods01_p02d.gif
Back to top Go down

Re: Maboroshi Night Bass tabs
Posted on Wed Sep 29, 2010 8:46 am


asuna

Indie Artist
Indie Artist
http://thebudgetgeek.blogspot.com
of course Amazed


_________________________________________________________________________________________________
http://thebudgetgeek.blogspot.com
Back to top Go down