SCANDAL Nanka Buttobase Chords & Tabs
Posted on Fri Oct 01, 2010 7:20 am


tsunvun86

Indie Artist
Indie Artist
http://tsunvun86.wordpress.com/
As usual paste to Notepad or view here

SCANDAL - SCANDAL Nanka Buttobase <----- click to look at guitar cover~~

Bb/F - 113331
Emaj7 - 021100 or 022444 or 079897
Bb/D - x5333x or x5876x

Intro:
Bb
Ebm C# B Bb
Ebm C# B Bb B Bb

Verse:
Ebm G#m Bb Ebm (x2)

Pre-Chorus:
G#m Bb C# F#
G#m F# Emaj7
Bb/F Bb

Chorus:
Ebm G#m C# F# Bb
G#m F# G#m
Fm Bb B Bb (x2)
Ebm G#m Ebm G#m Bb
Ebm

Instrumental:
Ebm C# Bb
Bb B Bb

repeat Verse

repeat Pre-Chorus

Chorus 2:
Ebm G#m C# F# Bb
G#m F# G#m
Fm Bb B Bb (x2)
Ebm G#m Ebm G#m Bb
Ebm F# G#m Bb

Solo:
F#m C# E B
D C#
F#m C# E B

--- --- --- ---- ---- ---- ---- ----
--- --- --- ---- ---- ---- ---- ----
-6-(x4) -8-(x4) -9-(x4) -10-(x4) -11-(x4) -13-(x4) -14-(x4) -15-(x4)
--- --- --- ---- ---- ---- ---- ----
-4- -6- -7- -8-- -9-- -11- -12- -13-
--- --- --- ---- ---- ---- ---- ----

Bb

Chorus 3:
G#m F# G#m
Fm Bb B Bb (x2)
Ebm C# B Bb Bb/D
F# G#m Bb Bb
Ebm F# G#m Bb (x2)

Outro:
Ebm C# B Bb (x2)
Emaj7
Ebm

Intro Solo:

Guitar 1
---- -------------------------------------------14----------------------------------
-14- --------------11-11-14b16-14-14b16--14--------16-------------------------------
-13-(x16) --------11-13--------------------------/15-------------------11-14-13-11-13/15-
---- -/13-13---------------------------------------------------13-------------------
-13- -------------------------------------------------14-14-14----------------------
---- -------------------------------------------------------------------------------

--------------------------------------------------------14----------------------------
-14-14-14-14---------------11-11-14b16-14-14b16--14--------16-------------------------
-13-13-13-13---------11-13--------------------------/15-------------------11-14-13-11-
--------------/13-13---------------------------------------------------13-------------
-13-13-13-13--------------------------------------------------14-14-14----------------
--------------------------------------------------------------------------------------

--------------
--------------
-15-15-16-15--
-15-15-16-15--
-13-13-14-13--
--------------

Guitar 2
-9- --------------------------------------------------------9-9-9-9--
-9- --------------------------------------------------------9-9-9-9--
---(x16) ----------3-3-6b8-6-6b8--6--/3-----------------------------------
-8- ------4-6----------------------4-----------4-7-6-4-6/8--8-8-8-8--
--- -/6-6----------------------------6-------6-----------------------
--- -----------------------------------7-7-7-------------------------

------------------------------------------------------------
-------------------------------7----------------------------
----------3-3-6b8-6-6b8--6-------7--------------------------
------4-6-------------------/8-------------4-7-6-4--8-8-9-8-
-/6-6------------------------------------6----------8-8-9-8-
-----------------------------------7-7-7------------6-6-7-6-


Instrumental Solo:

Guitar 1
-------------------------------------------14-------------------------------------------
--------------11-11-14b16-14-14b16--14--------16---------------------------/15-15-16-15-
--------11-13--------------------------/15-------7-7--7-7--7-7--7-7--7--7--/15-15-16-15-
-/13-13------------------------------------------8-8--8-8--8-8--8-8--8--8---------------
----------------------------------------------------------------------------------------
----------------------------------------------------------------------------------------

Guitar 2
----------------------------------------------------------------------------------------
----------------------------------------------------------------------------------------
----------3-3-6b8-6-6b8--6--/3----------------------------------------------------------
------4-6----------------------4-----------4-7-6-4-8-8--8-8--8-8--8-8--8--8--8--8--9--8-
-/6-6----------------------------6-------6---------8-8--8-8--8-8--8-8--8--8--8--8--9--8-
-----------------------------------7-7-7-----------6-6--6-6--6-6--6-6--6--6--6--6--7--6-


Solo:
----------12/14-13----------10/12-11--------------------------------------------------
------10----------------10-------------/15-15-15-15-14h15-15-15-15-14--12------12--14-
-/11----------------/9-----------------------------------------------------14---------
--------------------------------------------------------------------------------------
--------------------------------------------------------------------------------------
--------------------------------------------------------------------------------------

----------12/14-13----------10/12-11------ ---- ---- ---- ---- -14-
------10----------------10------------/14- -14-(x7) -16-(x8) -17-(x8) -18-(x8) ----(x8)
-/11----------------/9-------------------- ---- ---- ---- ---- ----
------------------------------------------ ---- ---- ---- ---- ----
------------------------------------------ ---- ---- ---- ---- ----
------------------------------------------ ---- ---- ---- ---- ----

-16- -/17- -17- -18--- ------------
----(x8) ----- ----(x7) ------ -14--14--14-
---- ----- ---- ------ -13--13--13-(x3)
---- ----- ---- ------ ------------
---- ----- ---- ------ -13--13--13-
---- ----- ---- ------ ------------


Outro Solo:

Guitar 1
-------------------------------------------14----------------------------------
--------------11-11-14b16-14-14b16--14--------16-------------------------------
--------11-13--------------------------/15-------------------11-14-13-11-13/15-
-/13-13---------------------------------------------------13-------------------
-------------------------------------------------14-14-14----------------------
-------------------------------------------------------------------------------

--------------------------------------------------------14----------------------------
-14-14-14-14---------------11-11-14b16-14-14b16--14--------16-------------------------
-13-13-13-13---------11-13--------------------------/15-------------------11-14-13-11-
--------------/13-13---------------------------------------------------13-------------
-13-13-13-13--------------------------------------------------14-14-14----------------
--------------------------------------------------------------------------------------

---- -/11----------------------------
-14- -----12-------------------------
-13-(x16) --------13-9-8----8-8-8---------
---- ------------------8-8-8---------
-13- ------------------6-6-6---------
---- --------------------------------

Guitar 2
--------------------------------------------------------9-9-9-9--
--------------------------------------------------------9-9-9-9--
----------3-3-6b8-6-6b8--6--/3-----------------------------------
------4-6----------------------4-----------4-7-6-4-6/8--8-8-8-8--
-/6-6----------------------------6-------6-----------------------
-----------------------------------7-7-7-------------------------

--------------------------------------------------- -9-
--------------------------------------------------- -9-
----------3-3-6b8-6-6b8--6--/3--------------------- ---(x16)
------4-6----------------------4-----------4-7-6-4- -8-
-/6-6----------------------------6-------6--------- ---
-----------------------------------7-7-7----------- ---

--------
--------
-8-8-8--
-8-8-8--
-6-6-6--
--------


Transcribed by,
tsunvun86 @ tsunvun86.wordpress.com



Last edited by tsunvun86 on Sat Oct 02, 2010 6:00 am; edited 1 time in total


_________________________________________________________________________________________________
Back to top Go down

Re: SCANDAL Nanka Buttobase Chords & Tabs
Posted on Fri Oct 01, 2010 7:36 am


yuujin_21

Administrator
Administrator
Thanks for the tab tsun!


_________________________________________________________________________________________________
"Bokaru HARUNA desu!"
"Gitaa MAMI desu!"
"Beesu TOMOMI desu!"
"Doraamusu RINA desu!"
Back to top Go down

Re: SCANDAL Nanka Buttobase Chords & Tabs
Posted on Fri Oct 01, 2010 7:53 am


rock_chick

Mainstream Artist
Mainstream Artist
finally Onion Whistle


_________________________________________________________________________________________________



Back to top Go down

Re: SCANDAL Nanka Buttobase Chords & Tabs
Posted on Fri Oct 01, 2010 8:38 am


asuna

Indie Artist
Indie Artist
http://thebudgetgeek.blogspot.com
Praise

the riffs and solos look fun to play :D


_________________________________________________________________________________________________
http://thebudgetgeek.blogspot.com
Back to top Go down

Re: SCANDAL Nanka Buttobase Chords & Tabs
Posted on Fri Oct 01, 2010 9:37 am


Kazuma

Shiroten Performer
Shiroten Performer
thx tsun your the best hahahaha


_________________________________________________________________________________________________
Back to top Go down

Re: SCANDAL Nanka Buttobase Chords & Tabs
Posted on Fri Oct 01, 2010 9:45 am


haritomi.denise

International Performer
International Performer
http://www.instagram.com/haritomi
sankyu~ Love
and great cover as always~ Onion Wahaha


_________________________________________________________________________________________________

"...most people die never realizing the dream of their lives...”


l DeviantArt ll Tumblr l
Back to top Go down

Re: SCANDAL Nanka Buttobase Chords & Tabs
Posted on Fri Oct 01, 2010 11:29 am


ichiiru-kun

Caless Student
Caless Student
waaa!! OMG im having a hard time to do the riffs... i already know the chords.. but the riffs... argh! so hard.. Cry

Back to top Go down

Re: SCANDAL Nanka Buttobase Chords & Tabs
Posted on Fri Oct 01, 2010 2:45 pm


El.Arcon.

Caless Student
Caless Student
sankyu Nice One
i've been looking the chords since 2 days ago

Back to top Go down

Re: SCANDAL Nanka Buttobase Chords & Tabs
Posted on Fri Oct 01, 2010 2:45 pm


YLenalee

Indie Artist
Indie Artist
Wow great cover !!
Thanks for the tabs !!


_________________________________________________________________________________________________

....
Back to top Go down

Re: SCANDAL Nanka Buttobase Chords & Tabs
Posted on Sat Oct 02, 2010 6:01 am


tsunvun86

Indie Artist
Indie Artist
http://tsunvun86.wordpress.com/
A typo in Chorus 3. ROAR!

Anyone wanna proof read for me?? OTL


_________________________________________________________________________________________________
Back to top Go down

Re: SCANDAL Nanka Buttobase Chords & Tabs
Posted on Sat Oct 02, 2010 6:07 am


yuujin_21

Administrator
Administrator
^ Other than that it's fine,i think.


_________________________________________________________________________________________________
"Bokaru HARUNA desu!"
"Gitaa MAMI desu!"
"Beesu TOMOMI desu!"
"Doraamusu RINA desu!"
Back to top Go down

Re: SCANDAL Nanka Buttobase Chords & Tabs
Posted on Sat Oct 02, 2010 6:28 am


phianzzz2

Caless Student
Caless Student
lol when i saw their movement in Nanka Buttobase PV... LOL

but waw, it's pretty hard to follow the video cover for a beginner like me

Back to top Go down

Re: SCANDAL Nanka Buttobase Chords & Tabs
Posted on Sat Oct 02, 2010 11:47 am


ichiiru-kun

Caless Student
Caless Student
yay! Clap finally i can do the riffs! thanks tsun-vun for the tabs! TOJ Onion

Back to top Go down

Re: SCANDAL Nanka Buttobase Chords & Tabs
Posted on Sun Oct 03, 2010 11:05 am


Rafayui

Caless Student
Caless Student
awesome Clap .


_________________________________________________________________________________________________



[center]

[/center]
Back to top Go down

Re: SCANDAL Nanka Buttobase Chords & Tabs
Posted on Sun Oct 03, 2010 1:25 pm


sigit_mishi

International Performer
International Performer
http://japanslot.com
thank you very much for this.....


_________________________________________________________________________________________________


Visit Our Blog At
Japanslot
Back to top Go down

Re: SCANDAL Nanka Buttobase Chords & Tabs
Posted on Sun Oct 03, 2010 2:59 pm


vincendadiaz

International Performer
International Performer
Wohoh~!!
thanks a lot for this tsun~! Nice One

Back to top Go down

Re: SCANDAL Nanka Buttobase Chords & Tabs
Posted on Mon Oct 04, 2010 10:11 am


phianzzz2

Caless Student
Caless Student
thanks a lot for your tabs, yay your tabs so accurate and fast of course!
but tsun-sama,,do you have "hoshi ni furu yoru ni" guitar tab? i dont know who i can ask for it. please help...
Praise

Back to top Go down

Re: SCANDAL Nanka Buttobase Chords & Tabs
Posted on Tue Oct 26, 2010 11:01 am


sasuke21

Caless Student
Caless Student
tnx for the tabs and for the cover

it really helps a lot

hehehehehe

Back to top Go down

Re: SCANDAL Nanka Buttobase Chords & Tabs
Posted on Tue Oct 26, 2010 11:08 am


sasuke21

Caless Student
Caless Student
do you have s.l magic tabs

pls post

Back to top Go down

Re: SCANDAL Nanka Buttobase Chords & Tabs
Posted on Tue Nov 02, 2010 11:22 am


NeverHeard17

Caless Student
Caless Student
wow...

it looks so easy when scandal playing this...

but I realize that it is not easy when I try it Frustrated

well I'm just a beginner..I will able to play it soon Praise

BTW
thanks to the chords!

Back to top Go down

Re: SCANDAL Nanka Buttobase Chords & Tabs
Posted on Wed Jan 26, 2011 7:53 am


bwahaha_13

Indie Artist
Indie Artist
http://bwahaha13.multiply.com/
thanks for this one sir tsun!!
i've learned it for almost 2days Onion Shy
whew...
and here's how a tab of how i played this song
Happy)
nanka buttobase
i wish that this is right TOJ Onion lol
again thanks IDOL!!!

Back to top Go down

Re: SCANDAL Nanka Buttobase Chords & Tabs
Posted on Tue Jun 14, 2011 9:23 am


deathshu

Caless Student
Caless Student
http://sibooster.blogspot.com
NeverHeard17 wrote:wow...

it looks so easy when scandal playing this...

but I realize that it is not easy when I try it Frustrated

well I'm just a beginner..I will able to play it soon Praise

BTW
thanks to the chords!

yeah iam same as with you..hehehehe LOVE Pinch

Back to top Go down

Re: SCANDAL Nanka Buttobase Chords & Tabs
Posted on Fri Jun 17, 2011 4:51 pm


Jesshyuu

Caless Student
Caless Student
http://ameblo.jp/jesshy/
Ohh Thank you!!! Happy Onion

I have already started to train.. ♥


_________________________________________________________________________________________________

心までは奪えない
何度でも何度でも駆け出せる
Back to top Go down

Re: SCANDAL Nanka Buttobase Chords & Tabs
Posted on Sun Jan 15, 2012 10:19 pm


JosephRuela

Indie Artist
Indie Artist
oh my holy god, this intro is from hell!!
1 whole hour to get this other world intro!! Frustrated
and is missing a part from solo Sweating


_________________________________________________________________________________________________

Back to top Go down

Re: SCANDAL Nanka Buttobase Chords & Tabs
Posted on Fri Apr 27, 2012 7:55 am


alexmontero08

Shiroten Performer
Shiroten Performer
no offense sir, i'm also a guitar player... i just want to correct the pre-chorus... it should be E and F not F# Emaj7.... but all of your chords are very specific....

Pre-Chorus:
G#m Bb C# F#
G#m E F
Bb/F Bb

hope you will not get angry.... by the way, also the tabs, 100% correct... ^^,

Back to top Go down