Request: Hi-Hi-Hi Bass Tab
Posted on Fri Oct 15, 2010 3:24 pm


sonic0313

Shiroten Performer
Shiroten Performer
Hi!

Does anyone have Hi-Hi-Hi Bass tab? I'm actually interested in the bass solo... My skills are not strong enough to decode Tomomi's bass lines.

Thanks.

Back to top Go down

Re: Request: Hi-Hi-Hi Bass Tab
Posted on Fri Oct 15, 2010 3:52 pm


mikan

Mainstream Artist
Mainstream Artist
http://mikanhannille.com/
Just wait for the guys who ordered the band scores as for I am too lazy to tab this out because of the counting. you can check out my cover on my youtube channel though *points the link on my siggy*


_________________________________________________________________________________________________
Back to top Go down

Re: Request: Hi-Hi-Hi Bass Tab
Posted on Fri Oct 15, 2010 4:28 pm


sonic0313

Shiroten Performer
Shiroten Performer
Thanks hessler. your cover would be a good start. Thanks.

Back to top Go down

Re: Request: Hi-Hi-Hi Bass Tab
Posted on Sun Mar 06, 2011 5:11 am


ulquiorra0209

Caless Student
Caless Student
Nice cover, i do play it with my fingers no pick

Back to top Go down

Re: Request: Hi-Hi-Hi Bass Tab
Posted on Sat Mar 19, 2011 2:11 am


bwahaha_13

Indie Artist
Indie Artist
http://bwahaha13.multiply.com/
but i prefer using pick...especially on the verse and interlude parts....


_________________________________________________________________________________________________
I Love my Pussy...lol
Back to top Go down

Re: Request: Hi-Hi-Hi Bass Tab
Posted on Wed Mar 23, 2011 12:08 pm


Yedz~

Mainstream Artist
Mainstream Artist
http://www.javawakkiz.deviantart.com
for me It's really good if you use your fingers on the part when TIMO is going for the solo part~but using the pick is good too~!


_________________________________________________________________________________________________


Once you've seen them they will make your WHOLE LIFE better~
Back to top Go down

Re: Request: Hi-Hi-Hi Bass Tab
Posted on Sun May 15, 2011 1:56 am


Aosaru

International Performer
International Performer
I found someone's bass tabs for hi-hi-hi on Ultimate-Guitar. I believe bwahaha_13 from SH posted them there.

Spoiler:
Hi Hi Hi
-Scandal-

-Intro-

*|-------|------------------|-------------------------|
*|-------|------------------|-------------------------|
*|-7---6-|-2-4-4--2-4-4-4-4-|-2-4-4--2-4-4-4-p2--/9/+-|
*|-------|------------------|-------------------------|

*|------------------|------------------|----------------------|
*|------------------|------------------|----------------------|
*|-2-4-4--2-4-4-4-4-|-2-4-4--2-4-4-4-4-|-2-4-4--4-4--4--4-----|
*|------------------|------------------|------------------+/+-|


-Verse-

*|------------------|-------------------------|
*|------------------|-------------------------|
*|-2-4-4--2-4-4-4-4-|-2-4-4--2-4-4-4-p2--/9/+-|
*|------------------|-------------------------|

*|------------------|------------------|-----------------------|
*|------------------|------------------|-----------------------|
*|-2-4-4--2-4-4-4-4-|-2-4-4--2-4-4-4-4-|-2-4-4--2-4p2-4-p2-+/+-|
*|------------------|------------------|-----------------------|

*|------------------|-------------------------|
*|------------------|-------------------------|
*|-2-4-4--2-4-4-4-4-|-2-4-4--2-4-4-4-p2--/9/+-|
*|------------------|-------------------------|

*|------------------|-----------------|
*|------------------|-----------------|
*|-2-4-4--2-4-4-4-4-|-2-4-4--2-4--+/+-|
*|------------------|-----------------|


-Instrumentals-

*|-------|------------------|-------------------------|
*|-------|------------------|-------------------------|
*|-7---6-|-2-4-4--2-4-4-4-4-|-2-4-4--2-4-4-4-p2--/9/+-|
*|-------|------------------|-------------------------|

*|------------------|------------------|-----------------------|
*|------------------|------------------|-----------------------|
*|-2-4-4--2-4-4-4-4-|-2-4-4--2-4-4-4-4-|-2-<4>--2-4p2-4p2------|
*|------------------|------------------|-------------------+/+-|


-Verse2-

*|------------------|--------------------------|
*|------------------|--------------------------|
*|-2-4-4--2-4-4-4-4-|-2-4-4--2-4-4-4--p2--/9/+-|
*|------------------|--------------------------|

*|------------------|------------------|----------------------|
*|------------------|------------------|----------------------|
*|-2-4-4--2-4-4-4-4-|-2-4-4--2-4-4-4-4-|-2-4-4--2-4p2-4p2-+/+-|
*|------------------|------------------|----------------------|

*|------------------|-------------------------|
*|------------------|-------------------------|
*|-2-4-4--2-4-4-4-4-|-2-4-4--2-4-4-4-p2--/9/+-|
*|------------------|-------------------------|

*|------------------|--------|
*|------------------|--------|
*|-2-4-4--2-4-4-4-4-|-2-4--6-|
*|------------------|--------|


-Refrain-

*|-------------|--------------|-------------|-------|
*|-----9-----9-|-----8-----8--|-------------|-----6-|
*|-6/7----7----|-7p6----6-----|-----6-----6-|-0-4---|
*|-------------|--------------|-0-4----4----|-------|

*|---------|--------------|----------------|----------|
*|-------9-|-----8-----8--|----------------|----------|
*|-4/6/7---|-7p6----6-----|-0-4~-----------|----------|
*|---------|--------------|------0-4-4~-4~-|-4---5--7-|


-Chorus-

*|--------|-------|
*|--------|-------|
*|-4--<4>-|-------|
*|--------|-------|

*|--------|-------|
*|--------|-------|
*|-4--<4>-|-------|
*|--------|-------|

*|--------|-------|----------|
*|--------|-------|----------|
*|-4--<4>-|-------|-4---2----|
*|--------|-------|-------2~-|

*|--------|-------|
*|--------|-------|
*|-4--<4>-|-------|
*|--------|-------|

*|--------|-------|
*|--------|-------|
*|-4--<4>-|-------|
*|--------|-------|

*|--------|-------------|--------------|----------|
*|--------|-+/11p9------|--------------|----------|
*|-4--<4>-|--------11p9-|-4---2--------|-4---2----|
*|--------|-------------|-------2~-<2>-|-------2~-|

*|---------------|-----------|-----------------|
*|---------------|-----------|-----9--11-------|
*|---------------|-----------|-6-----------+/+-|
*|-9---7--2~-<2>-|-9---7--2~-|-----------------|


-Instrumentals2-

*|-------|------------------|-------------------------|
*|-------|------------------|-------------------------|
*|-7---6-|-2-4-4--2-4-4-4-4-|-2-4-4--2-4-4-4-p2--/9/+-|
*|-------|------------------|-------------------------|

*|------------------|------------------|------------------------|
*|------------------|------------------|------------------------|
*|-2-4-4--2-4-4-4-4-|-2-4-4--2-4-4-4-4-|-2-<4>--2-4p2-4-p2------|
*|------------------|------------------|--------------------+/+-|


-Verse3-

*|------------------|-------------------------|
*|------------------|-------------------------|
*|-2-4-4--2-4-4-4-4-|-2-4-4--2-4-4-4-p2--/9/+-|
*|------------------|-------------------------|

*|------------------|------------------|-------|
*|------------------|------------------|-------|
*|-2-4-4--2-4-4-4-4-|-2-4-4--2-4-4-4-4-|-2-4-4-|
*|------------------|------------------|-------|

*|------------------|-------------------------|
*|------------------|-------------------------|
*|-2-4-4--2-4-4-4-4-|-2-4-4--2-4-4-4-p2--/9/+-|
*|------------------|-------------------------|

*|------------------|-----------|
*|------------------|-----------|
*|-2-4-4--2-4-4-4-4-|-2-4-4-+/+-|
*|------------------|-----------|


-Instrumentals3-

*|-------|------------------|-------------------------|
*|-------|------------------|-------------------------|
*|-7---6-|-2-4-4--2-4-4-4-4-|-2-4-4--2-4-4-4-p2--/9/+-|
*|-------|------------------|-------------------------|

*|------------------|------------------|-----------------------|
*|------------------|------------------|-----------------------|
*|-2-4-4--2-4-4-4-4-|-2-4-4--2-4-4-4-4-|-2-<4>--2-4p2-4p2--+/+-|
*|------------------|------------------|-----------------------|


-Tomomi's Bleeding Bass Solo-(hahaha.LOL.)

*|-----[6]-[4]-|-----[6]-[4]-|-----[6]-[4]-|------[9]-----[8]-|
*|-------------|-------------|-------------|------------------|
*|-[2]---------|-[2]---------|-[2]---------|-[6]------[6]-----|
*|-------------|-------------|-------------|------------------|

*|-----[6]-[4]-|-----[6]-[4]-|-----[6]-[4]-|------------------|------11-----|
*|-------------|-------------|-------------|------------------|-+/11----+/+-|
*|-[2]---------|-[2]---------|-[2]---------|-2-4-4-p2-4p2-4p2-|-------------|
*|-------------|-------------|-------------|------------------|-------------|


-Bridge-

*|-------------|--------|-------------|----------|
*|-------------|--------|-------------|----------|
*|-------------|--------|-0-7--7--7-7-|----------|
*|-0-5--5--5-5-|-7--7-7-|-------------|-0-2--2-2-|

*|-------------|----------|------------|-----------|-------------|-----------|
*|-------------|----------|--------6/+-|-------9/+-|--------11/+-|-----------|
*|-------------|-0-3--3-3-|-3/4-4------|-4/7-7-----|-7/9-9-------|-9-12--12~-|
*|-0-5--5--5-5-|----------|------------|-----------|-------------|-----------|

*|-11-------------|------------------|----------|
*|----11p9--------|-8p6--------------|----------|
*|----------10-p8-|------6p4~--------|----------|
*|----------------|-----------0-4-4~-|-4---5--7-|


-Last Chorus-

*|--------|-------|
*|--------|-------|
*|-4--<4>-|-------|
*|--------|-------|

*|--------|-------|
*|--------|-------|
*|-4--<4>-|-------|
*|--------|-------|

*|--------|-------|----------|
*|--------|-------|----------|
*|-4--<4>-|-------|-4---2----|
*|--------|-------|-------2~-|

*|--------|-------------|
*|--------|-+/11p9------|
*|-4--<4>-|--------11p9-|
*|--------|-------------|

*|--------|-------|
*|--------|-------|
*|-4--<4>-|-------|
*|--------|-------|

*|--------|------------|---------|---------|
*|--------|-+11p9------|---------|---------|
*|-4--<4>-|-------11p9-|-4--2----|-4--2----|
*|--------|------------|------2~-|------2~-|

*|-----------|-----------|
*|-----------|-----------|
*|-----------|-----------|
*|-9---7--2~-|-9---7--2~-|

*|--------------------------------------------------|----------------|
*|--------------------------------------------------|-6---9--11------|
*|-4--4/6--6--6/7--7-7/9--9--9/11--11--11/12--12-12-|------------+/+-|
*|--------------------------------------------------|----------------|


-Outro-

*|-------|------------------|-------------------------|
*|-------|------------------|-------------------------|
*|-7---6-|-2-4-4--2-4-4-4-4-|-2-4-4--2-4-4-4-p2--/9/+-|
*|-------|------------------|-------------------------|

*|------------------|-------|
*|------------------|-------|
*|-2-4-4--2-4-4-4-4-|-2-4-4-|
*|------------------|-------|

*|-------|------------------|-------------------------|
*|-------|------------------|-------------------------|
*|-7---6-|-2-4-4--2-4-4-4-4-|-2-4-4--2-4-4-4-p2--/9/+-|
*|-------|------------------|-------------------------|

*|------------------|-------|------------|
*|------------------|-------|------------|
*|-2-4-4--2-4-4-4-4-|-2-4-4-|-7---6--<4>-|
*|------------------|-------|------------| end....


-Ledger-

h hammer on
p pull off
~ let ring
or break
/ slide
+/+ legato slide
+/ or /+ slide from/to nowhere
do alternate picking or tremolo picking for the whole measure
(n) or (n-n-n...) palm muted
*/ or /* or */* scrape pick down the strings
x dead string
b bend
qb quarter bend
hb half bend
fb full bend
[n] (for bass tabs only) tap, slap, pop, or what ever you may call it..hahaha


Edit:
lol so in the refrain, part of the tab ended up changing to an emoticon. It is suppose to be 8--| but it was changed into Rolling Eyes This is what it looked like before:
Spoiler:
*|-------------|-------------|-------------|-------|
*|-----9-----9-|-----8-----Rolling Eyes-------------|-----6-|
*|-6/7----7----|-7p6----6----|-----6-----6-|-0-4---|
*|-------------|-------------|-0-4----4----|-------|

*|---------|-------------|----------------|----------|
*|-------9-|-----8-----Rolling Eyes----------------|----------|
*|-4/6/7---|-7p6----6----|-0-4~-----------|----------|
*|---------|-------------|------0-4-4~-4~-|-4---5--7-|
All I did was add an extra "-" on each line, so if its a little off because of that, blame me. XD


_________________________________________________________________________________________________
Back to top Go down

Re: Request: Hi-Hi-Hi Bass Tab
Posted on Mon May 23, 2011 4:29 am


bwahaha_13

Indie Artist
Indie Artist
http://bwahaha13.multiply.com/
You thanked this post! -
Thanks received by this post:

Message reputation : 100% (1 vote)

KoiMoyou wrote:I found someone's bass tabs for hi-hi-hi on Ultimate-Guitar. I believe bwahaha_13 from SH posted them there.

Spoiler:
Hi Hi Hi
-Scandal-

-Intro-

*|-------|------------------|-------------------------|
*|-------|------------------|-------------------------|
*|-7---6-|-2-4-4--2-4-4-4-4-|-2-4-4--2-4-4-4-p2--/9/+-|
*|-------|------------------|-------------------------|

*|------------------|------------------|----------------------|
*|------------------|------------------|----------------------|
*|-2-4-4--2-4-4-4-4-|-2-4-4--2-4-4-4-4-|-2-4-4--4-4--4--4-----|
*|------------------|------------------|------------------+/+-|


-Verse-

*|------------------|-------------------------|
*|------------------|-------------------------|
*|-2-4-4--2-4-4-4-4-|-2-4-4--2-4-4-4-p2--/9/+-|
*|------------------|-------------------------|

*|------------------|------------------|-----------------------|
*|------------------|------------------|-----------------------|
*|-2-4-4--2-4-4-4-4-|-2-4-4--2-4-4-4-4-|-2-4-4--2-4p2-4-p2-+/+-|
*|------------------|------------------|-----------------------|

*|------------------|-------------------------|
*|------------------|-------------------------|
*|-2-4-4--2-4-4-4-4-|-2-4-4--2-4-4-4-p2--/9/+-|
*|------------------|-------------------------|

*|------------------|-----------------|
*|------------------|-----------------|
*|-2-4-4--2-4-4-4-4-|-2-4-4--2-4--+/+-|
*|------------------|-----------------|


-Instrumentals-

*|-------|------------------|-------------------------|
*|-------|------------------|-------------------------|
*|-7---6-|-2-4-4--2-4-4-4-4-|-2-4-4--2-4-4-4-p2--/9/+-|
*|-------|------------------|-------------------------|

*|------------------|------------------|-----------------------|
*|------------------|------------------|-----------------------|
*|-2-4-4--2-4-4-4-4-|-2-4-4--2-4-4-4-4-|-2-<4>--2-4p2-4p2------|
*|------------------|------------------|-------------------+/+-|


-Verse2-

*|------------------|--------------------------|
*|------------------|--------------------------|
*|-2-4-4--2-4-4-4-4-|-2-4-4--2-4-4-4--p2--/9/+-|
*|------------------|--------------------------|

*|------------------|------------------|----------------------|
*|------------------|------------------|----------------------|
*|-2-4-4--2-4-4-4-4-|-2-4-4--2-4-4-4-4-|-2-4-4--2-4p2-4p2-+/+-|
*|------------------|------------------|----------------------|

*|------------------|-------------------------|
*|------------------|-------------------------|
*|-2-4-4--2-4-4-4-4-|-2-4-4--2-4-4-4-p2--/9/+-|
*|------------------|-------------------------|

*|------------------|--------|
*|------------------|--------|
*|-2-4-4--2-4-4-4-4-|-2-4--6-|
*|------------------|--------|


-Refrain-

*|-------------|--------------|-------------|-------|
*|-----9-----9-|-----8-----8--|-------------|-----6-|
*|-6/7----7----|-7p6----6-----|-----6-----6-|-0-4---|
*|-------------|--------------|-0-4----4----|-------|

*|---------|--------------|----------------|----------|
*|-------9-|-----8-----8--|----------------|----------|
*|-4/6/7---|-7p6----6-----|-0-4~-----------|----------|
*|---------|--------------|------0-4-4~-4~-|-4---5--7-|


-Chorus-

*|--------|-------|
*|--------|-------|
*|-4--<4>-|-------|
*|--------|-------|

*|--------|-------|
*|--------|-------|
*|-4--<4>-|-------|
*|--------|-------|

*|--------|-------|----------|
*|--------|-------|----------|
*|-4--<4>-|-------|-4---2----|
*|--------|-------|-------2~-|

*|--------|-------|
*|--------|-------|
*|-4--<4>-|-------|
*|--------|-------|

*|--------|-------|
*|--------|-------|
*|-4--<4>-|-------|
*|--------|-------|

*|--------|-------------|--------------|----------|
*|--------|-+/11p9------|--------------|----------|
*|-4--<4>-|--------11p9-|-4---2--------|-4---2----|
*|--------|-------------|-------2~-<2>-|-------2~-|

*|---------------|-----------|-----------------|
*|---------------|-----------|-----9--11-------|
*|---------------|-----------|-6-----------+/+-|
*|-9---7--2~-<2>-|-9---7--2~-|-----------------|


-Instrumentals2-

*|-------|------------------|-------------------------|
*|-------|------------------|-------------------------|
*|-7---6-|-2-4-4--2-4-4-4-4-|-2-4-4--2-4-4-4-p2--/9/+-|
*|-------|------------------|-------------------------|

*|------------------|------------------|------------------------|
*|------------------|------------------|------------------------|
*|-2-4-4--2-4-4-4-4-|-2-4-4--2-4-4-4-4-|-2-<4>--2-4p2-4-p2------|
*|------------------|------------------|--------------------+/+-|


-Verse3-

*|------------------|-------------------------|
*|------------------|-------------------------|
*|-2-4-4--2-4-4-4-4-|-2-4-4--2-4-4-4-p2--/9/+-|
*|------------------|-------------------------|

*|------------------|------------------|-------|
*|------------------|------------------|-------|
*|-2-4-4--2-4-4-4-4-|-2-4-4--2-4-4-4-4-|-2-4-4-|
*|------------------|------------------|-------|

*|------------------|-------------------------|
*|------------------|-------------------------|
*|-2-4-4--2-4-4-4-4-|-2-4-4--2-4-4-4-p2--/9/+-|
*|------------------|-------------------------|

*|------------------|-----------|
*|------------------|-----------|
*|-2-4-4--2-4-4-4-4-|-2-4-4-+/+-|
*|------------------|-----------|


-Instrumentals3-

*|-------|------------------|-------------------------|
*|-------|------------------|-------------------------|
*|-7---6-|-2-4-4--2-4-4-4-4-|-2-4-4--2-4-4-4-p2--/9/+-|
*|-------|------------------|-------------------------|

*|------------------|------------------|-----------------------|
*|------------------|------------------|-----------------------|
*|-2-4-4--2-4-4-4-4-|-2-4-4--2-4-4-4-4-|-2-<4>--2-4p2-4p2--+/+-|
*|------------------|------------------|-----------------------|


-Tomomi's Bleeding Bass Solo-(hahaha.LOL.)

*|-----[6]-[4]-|-----[6]-[4]-|-----[6]-[4]-|------[9]-----[8]-|
*|-------------|-------------|-------------|------------------|
*|-[2]---------|-[2]---------|-[2]---------|-[6]------[6]-----|
*|-------------|-------------|-------------|------------------|

*|-----[6]-[4]-|-----[6]-[4]-|-----[6]-[4]-|------------------|------11-----|
*|-------------|-------------|-------------|------------------|-+/11----+/+-|
*|-[2]---------|-[2]---------|-[2]---------|-2-4-4-p2-4p2-4p2-|-------------|
*|-------------|-------------|-------------|------------------|-------------|


-Bridge-

*|-------------|--------|-------------|----------|
*|-------------|--------|-------------|----------|
*|-------------|--------|-0-7--7--7-7-|----------|
*|-0-5--5--5-5-|-7--7-7-|-------------|-0-2--2-2-|

*|-------------|----------|------------|-----------|-------------|-----------|
*|-------------|----------|--------6/+-|-------9/+-|--------11/+-|-----------|
*|-------------|-0-3--3-3-|-3/4-4------|-4/7-7-----|-7/9-9-------|-9-12--12~-|
*|-0-5--5--5-5-|----------|------------|-----------|-------------|-----------|

*|-11-------------|------------------|----------|
*|----11p9--------|-8p6--------------|----------|
*|----------10-p8-|------6p4~--------|----------|
*|----------------|-----------0-4-4~-|-4---5--7-|


-Last Chorus-

*|--------|-------|
*|--------|-------|
*|-4--<4>-|-------|
*|--------|-------|

*|--------|-------|
*|--------|-------|
*|-4--<4>-|-------|
*|--------|-------|

*|--------|-------|----------|
*|--------|-------|----------|
*|-4--<4>-|-------|-4---2----|
*|--------|-------|-------2~-|

*|--------|-------------|
*|--------|-+/11p9------|
*|-4--<4>-|--------11p9-|
*|--------|-------------|

*|--------|-------|
*|--------|-------|
*|-4--<4>-|-------|
*|--------|-------|

*|--------|------------|---------|---------|
*|--------|-+11p9------|---------|---------|
*|-4--<4>-|-------11p9-|-4--2----|-4--2----|
*|--------|------------|------2~-|------2~-|

*|-----------|-----------|
*|-----------|-----------|
*|-----------|-----------|
*|-9---7--2~-|-9---7--2~-|

*|--------------------------------------------------|----------------|
*|--------------------------------------------------|-6---9--11------|
*|-4--4/6--6--6/7--7-7/9--9--9/11--11--11/12--12-12-|------------+/+-|
*|--------------------------------------------------|----------------|


-Outro-

*|-------|------------------|-------------------------|
*|-------|------------------|-------------------------|
*|-7---6-|-2-4-4--2-4-4-4-4-|-2-4-4--2-4-4-4-p2--/9/+-|
*|-------|------------------|-------------------------|

*|------------------|-------|
*|------------------|-------|
*|-2-4-4--2-4-4-4-4-|-2-4-4-|
*|------------------|-------|

*|-------|------------------|-------------------------|
*|-------|------------------|-------------------------|
*|-7---6-|-2-4-4--2-4-4-4-4-|-2-4-4--2-4-4-4-p2--/9/+-|
*|-------|------------------|-------------------------|

*|------------------|-------|------------|
*|------------------|-------|------------|
*|-2-4-4--2-4-4-4-4-|-2-4-4-|-7---6--<4>-|
*|------------------|-------|------------| end....


-Ledger-

h hammer on
p pull off
~ let ring
or break
/ slide
+/+ legato slide
+/ or /+ slide from/to nowhere
do alternate picking or tremolo picking for the whole measure
(n) or (n-n-n...) palm muted
*/ or /* or */* scrape pick down the strings
x dead string
b bend
qb quarter bend
hb half bend
fb full bend
[n] (for bass tabs only) tap, slap, pop, or what ever you may call it..hahaha


Edit:
lol so in the refrain, part of the tab ended up changing to an emoticon. It is suppose to be 8--| but it was changed into Rolling Eyes This is what it looked like before:
Spoiler:
*|-------------|-------------|-------------|-------|
*|-----9-----9-|-----8-----Rolling Eyes-------------|-----6-|
*|-6/7----7----|-7p6----6----|-----6-----6-|-0-4---|
*|-------------|-------------|-0-4----4----|-------|

*|---------|-------------|----------------|----------|
*|-------9-|-----8-----Rolling Eyes----------------|----------|
*|-4/6/7---|-7p6----6----|-0-4~-----------|----------|
*|---------|-------------|------0-4-4~-4~-|-4---5--7-|
All I did was add an extra "-" on each line, so if its a little off because of that, blame me. XD


yup!!!
that's mine...xDDD
here's a better version...and already updated...
click me
but im not 100% sure about that....hahaha


_________________________________________________________________________________________________
I Love my Pussy...lol
Back to top Go down

Re: Request: Hi-Hi-Hi Bass Tab
Posted on Thu Jun 06, 2013 5:14 pm


kawaiicaky

Caless Student
Caless Student
Hello !

I know this subject is old, but ... what is the tempo for this tab ?

Thanks !

Back to top Go down