Hitotsu Dake Chords and Tabs
Posted on Fri Oct 15, 2010 4:03 pm


yuujin_21

Administrator
Administrator
You thanked this post! -
Thanks received by this post:

Message reputation : 100% (1 vote)

As the description said,this is taken from the bandscore.Any mistakes,yell at Sony.LOL Kidding.If there's any typos let me know.If it gets a bit confusing,i'm making a cover tomorrow,hopefully it will clear things up if anyone is confused.

Gtr.I is by MAMI and Gtr.II is by HARUNA.

EDIT:Updated with cover



Paste into notepad to view.


Hitotsu Dake-SCANDAL


Gtr.I (MAMI)

Intro:
Cadd9 Dadd9 Em7 A
Cadd9 D

e:----------------
B:----------------
G:-11-12-//////---
D:--x--x----------
A:--9--10-/////---
E:----------------



e:-------------------------------------------
B:-------------------------------------------
G:-11-12-12-11-12-12-11-12--12--12-12-14-14--
D:--x--x--x--x--x--x--x--x---x---x--x--x--x--
A:--9--10-10-9-10-10--9-10--10--10--10-12-12-
E:-------------------------------------------


---------------------------
---------------------------
-16-///-12-///-14-///-7-//-
--x-///--x-///--x-///-x-//-
-14-///-10-///-12-///-9-//-
---------------------------


Verse:

After initial palm muting of the chords by Gtr.II

-------------
-------------
-4-\\\\\\\\--
-------------
-------------
-------------


Make zuki rai ga kara mawatteru yo
----------------
----------------
-5-\\\\\\\\\\\--
----------------
----------------
----------------



Pre-chorus:

With tremolo:

-------------------
-------------------
-------------------
-------------------
-3---5-5---7---7---
-------------------


Am Bm C A&onC# D C B


Chorus:

1st:

---- ---- ---- ---- ---- ---
---- ---- ---- ---- ---- ---
-12- x8 -11- x4 -14- x4 -12- x8 -11- x4 -9- x4
--x- --x- --x- --x- --x- -x-
-10- --9- -12- -10- --9- -7-
---- ---- ---- ---- ---- ---

2nd:

Repeat first three bars of 1st,then

-----------------------------------------------
-16-16-x-14-14-14-14-14-12-12-x-14-14-14-14-14-
--x--x-x--x--x--x--x--x--x--x-x--x--x--x--x--x-
-14-14-x-12-12-12-12-12-10-10-x-12-12-12-12-12-
-----------------------------------------------
-----------------------------------------------

3rd:

Repeat 1st,then

----------------------------------------------------------------------
----------------------------------------------------------------------
-12-12-12-12-12-12-12-12-11-11-11-11-14-14-14-14-16-16-16-16-16-16-16-
--x--x--x--x--x--x--x--x--x--x--x--x--x--x--x--x--x--x--x--x--x--x--x-
-10-10-10-10-10-10-10-10--9--9--9--9-12-12-12-12-14-14-14-14-14-14-14-
----------------------------------------------------------------------


--------------------------------------------------------
--------------------------------------------------------
-14-14-14-14-14-14-14-14-14-12~------11-11-11-11-11-11--
--x--x--x--x--x--x--x--x--x--x~-------x--x--x--x--x--x--
-12-12-12-12-12-12-12-12-12-10~-------9--9--9--9--9--9--
--------------------------------------------------------


Repeat Intro without last 4 octaves

Repeat Verse

Break:

--------------------------------------------------
--------------------------------------------------
-12~----11-11~----14~----16~-----14~------x-x-x-x-
--x------x--x------x------x-------x-------x-x-x-x-
-10------9--9-----12-----14------12-------x-x-x-x-
--------------------------------------------------


-----------------------------------------------------
-----------------------------------------------------
-12~----11-11~----14~-----16~---16-----14-14~----12~-
--x------x--x------x-------x-----x------x--x------x--
-10------9--9-----12------14----14-----12-12-----10--
-----------------------------------------------------

Repeat Pre-chorus

Chorus 2:

Repeat 1st

Repeat 2nd

3rd:

Repeat 1st,then

Nakitakunatta hi mo aru yo
--------------------------------------------------
-12-12-12-12-12-12-12-12-14-14-14-14-16-16-16-16--
--x--x--x--x--x--x--x--x--x--x--x--x--x--x--x--x--
-10-10-10-10-10-10-10-10-12-12-12-12-14-14-14-14--
--------------------------------------------------

Repeat Chorus

Repeat intro without last 4 octaves

Outro:

---------------------------------------------------
---------------------------------------------------
-12-12-12-12-12-12-12-12-16-16-16-16-17-17-17-12-~-
--x--x--x--x--x--x--x--x--x--x--x--x--x--x--x--x---
-10-10-10-10-10-10-10-10-14-14-14-14-15-15-15-10-~-
---------------------------------------------------









Gtr.II (HARUNA)

Intro:

Cadd9 Dadd9 Em7 A
Cadd9 D
(Bm C
Bm C Bm C Bm C D x3
C D G)

Verse:
C Bm C
G C Bm C

Pre-chorus:
Am Bm Em BonD# D AonC#
Am Bm C A7onC# D C Bm


Chorus:
C D Em A
C D Em DonF# G A
C D Em A
C D Em A Am7 Bm

Repeat () part from intro

Repeat verse

Break:
Am Bm Em A
Am Bm Em BonD# D AonC#

Repeat Pre-chorus

Chorus 2:
C D Em A
C D Em DonF# G A
C D Em A
C D

Repeat chorus

Repeat () from intro

Outro:
Bm C G


Cadd9:x32033
Dadd9:xx0320
BonD#:x69xxx
AonC#:x74xxx
A7onC#:x45xxx
DonF#:25xxxx




Tabs and chords taken from BEST SCANDAL bandscore.



Last edited by EugeneAng on Sun Oct 17, 2010 2:20 am; edited 1 time in total


_________________________________________________________________________________________________
"Bokaru HARUNA desu!"
"Gitaa MAMI desu!"
"Beesu TOMOMI desu!"
"Doraamusu RINA desu!"
Back to top Go down

Re: Hitotsu Dake Chords and Tabs
Posted on Fri Oct 15, 2010 4:17 pm


bemnage

Mainstream Artist
Mainstream Artist
http://www.youtube.com/user/bemnage?feature=mhum
Oh my....... thats at least 500 dollars =Dp

well im getting mine soon. if anyone's interested i can do the bass tabs :>


_________________________________________________________________________________________________


credits to lale [=3

Youtube Channel

TOMO in AFAX
TOMO: We went to the night safari. Hippopotamus.... you know? very very very......... smelly. I die.
LOL
Back to top Go down

Re: Hitotsu Dake Chords and Tabs
Posted on Fri Oct 15, 2010 4:20 pm


layachanx3

Indie Artist
Indie Artist
Praise ARIGATOU EUGENE-SAMA!

payment will arrive SOON Evil Grin


_________________________________________________________________________________________________
Back to top Go down

Re: Hitotsu Dake Chords and Tabs
Posted on Sun Oct 17, 2010 2:18 am


yuujin_21

Administrator
Administrator
Updated with cover.


_________________________________________________________________________________________________
"Bokaru HARUNA desu!"
"Gitaa MAMI desu!"
"Beesu TOMOMI desu!"
"Doraamusu RINA desu!"
Back to top Go down

Re: Hitotsu Dake Chords and Tabs
Posted on Mon Oct 18, 2010 5:46 pm


jamhero

Caless Student
Caless Student
nice cover Nice One

Back to top Go down