SCANDAL Nanka Buttobase Bass tabs
Posted on Sat Oct 16, 2010 5:23 am


asuna

Indie Artist
Indie Artist
http://thebudgetgeek.blogspot.com
You thanked this post! -
Thanks received by this post:

Message reputation : 100% (2 votes)

as usual, paste into notepad

Code:
intro riff (*spam = follow the drum snares)

|------------8--8--8--8--6--6--6--6-----------------|---8--8--8--8--6--6--6--6------------------------|
|---------------------------------------------------|-------------------------------------------------|
|-1(xspam)-/6--6--6--6--4--4--4--4--2(spam)-1(spam)-|--6--6--6--6--4--4--4--4--2(spam)-1-1-2-1--------|
|---------------------------------------------------|-------------------------------------------------|

Verse

|-------------------------------------------|
|---------------4-3-1-----------------------|
|-6\-------1----------4-6\-------1--6-6-----|
|----4\-4\-----------------4\-4\------------|

Prechorus

|--------------------------------------------------------------------|
|--------------------------------------------------------------------|
|-------------4(x8)-9(x8)------------------1(x8)-1-1-3-3-4-4-5-5-----|
|-4(x8)-6(x8)------------4(x4)-2(x4)-0(x8)---------------------------|

Chorus


|------------------------------------------------------------------------------------------------------15------------|
|-------------------------------6-6-----------6-6-------------------------------------------4(x8)---------15---------|
|-6-6-----------6-6-----------------6-6-----------6-6---------4-4-----------4-4-------------------1-/13--------------|
|-----6-6-2-2-6-----6-6-2-2-6-6---------7-7-4---------7-7-4-4-----4-4-1-1-4-----4-4-1-1-4-4--------------------------|

|-------------------------------------------------------------------------------------------|
|-------------------------------------------------------------------------------------------|
|-------/11(x8)----------------1-x-2-1-x---1-x-2-1-/6(x8)-------6(x8)-------------6(x8)-----|
|-4-4-4---------2(x8)-4(x3)--1-----------1----------------4(x8)-------4(x8)-6(x4)-----------|


Riff

|---8--8--8--8--6--6--6--6------------------------|
|-------------------------------------------------|
|--6--6--6--6--4--4--4--4--1(spam)-1-1-2-1--------|
|-------------------------------------------------|


Verse

Prechorus

Chorus

|------------------------------------------------------------------------------------------------------15------------|
|-------------------------------6-6-----------6-6-------------------------------------------4(x8)---------15---------|
|-6-6-----------6-6-----------------6-6-----------6-6---------4-4-----------4-4-------------------1-/13--------------|
|-----6-6-2-2-6-----6-6-2-2-6-6---------7-7-4---------7-7-4-4-----4-4-1-1-4-----4-4-1-1-4-4--------------------------|

|-----------13-------------------------------------------------------------------------------------------------|
|--------------13----------------------------------------------------------------------------------------------|
|-------/11-------11-9(x8)-11----1-x-2-1-x---1-x-2-1-/6(x8)-------6(x8)-------------6(x3)-9(x3)-11(x3)-13(x3)--|
|-4-4-4------------------------1-----------1----------------4(x8)-------4(x8)-6(x4)----------------------------|

Solo

|----------------------------------------------------------------------------------------------------------------------------|
|----------------------------------------------------------------------------------------------------------------------------|
|-9(x4)-8(x4)-7(x4)-6(x4)-5(x8)-4(x8)-9(x4)-8(x4)-7(x4)-6(x4)-4(x4)-6(x4)-7(x4)-8(x4)-9(x4)-11(x4)-12(x4)-13(x4)--13(spam!)--|
|----------------------------------------------------------------------------------------------------------------------------|


Ending chorus

|------------13----------------------------------------------------------------------------------------|
|---------------13-------------------------------------------------------------------------------------|
|---------/11------11-9(x8)-11----1-x-2-1-x---1-x-2-1-/6(x8)-4(x8)-2(x8)-1(x8)-------------------------|
|-/\4-4-4-----------------------1-----------1----------------------------------2(x8)-4(x8)-6\---6-6\---|


|---------------------------------------------------------------------|
|---------------------------------------------------------------------|
|-6(x3)-9(x3)-11(x3)-13(x3)-6(x3)-9(x3)-11(x3)-13(x3)-----------------|
|---------------------------------------------------------------------|

Repeat full intro riff

whack the open E string, do a slide on the G string until 8th fret, end on Eb (A String 6th fret)


_________________________________________________________________________________________________
http://thebudgetgeek.blogspot.com
Back to top Go down

Re: SCANDAL Nanka Buttobase Bass tabs
Posted on Sat Oct 16, 2010 2:08 pm


bemnage

Mainstream Artist
Mainstream Artist
http://www.youtube.com/user/bemnage?feature=mhum
Woah! thanks asuna!!!!!!! Nau to play my current fav song [=3


_________________________________________________________________________________________________


credits to lale [=3

Youtube Channel

TOMO in AFAX
TOMO: We went to the night safari. Hippopotamus.... you know? very very very......... smelly. I die.
LOL
Back to top Go down

Re: SCANDAL Nanka Buttobase Bass tabs
Posted on Fri Oct 22, 2010 4:21 am


MadOrange

Shiroten Performer
Shiroten Performer
ow god1 great desu!!sankyuu! LOVE


_________________________________________________________________________________________________

                                                                                                                                            otakumi
Back to top Go down

Re: SCANDAL Nanka Buttobase Bass tabs
Posted on Mon Nov 01, 2010 1:47 am


Areho

Caless Student
Caless Student
Yay, thanks for the tab.

Actually I been thinking to upload a video with my version of the bass tab. (I used to play by ear)

Wouldn't you mind if I post it here?

Let me know, please.

See ya


_________________________________________________________________________________________________

WE ARE CONNECTED BY THE MUSIC
Back to top Go down

Re: SCANDAL Nanka Buttobase Bass tabs
Posted on Mon Nov 01, 2010 2:08 am


yuujin_21

Administrator
Administrator
^ You can post it in the SCANDAL cover thread,in this same forum under Guitar Chords & Tabs.


_________________________________________________________________________________________________
"Bokaru HARUNA desu!"
"Gitaa MAMI desu!"
"Beesu TOMOMI desu!"
"Doraamusu RINA desu!"
Back to top Go down

Re: SCANDAL Nanka Buttobase Bass tabs
Posted on Fri Nov 05, 2010 12:10 pm


TheChosenOne

Caless Student
Caless Student
thank you!!! i've been looking for this!! Happy

Back to top Go down

Re: SCANDAL Nanka Buttobase Bass tabs
Posted on Thu Jan 26, 2012 8:15 am


CruzeRBladE

Caless Student
Caless Student
@asuna
yea is it ok if i would use your tabs for my variation of the song?
well the variation was made by ear and i used equalizers to hear the bass more
i'd also credit you for most of the parts
thanks in advance


_________________________________________________________________________________________________
Onion Love Onion Shy Happy Onion
Back to top Go down