Natsu Neiro Bass Tab..
Posted on Mon Nov 01, 2010 8:05 am


muya

Indie Artist
Indie Artist
https://www.youtube.com/channel/UCxS_0_TYNXbjkcOkkZiyy9g
You thanked this post! -
Thanks received by this post:

Message reputation : 100% (1 vote)

copy n paste into notepad for better view..
Spoiler:
SCANDAL - Natsu Neiro


G|---------------------------|
D|---------------------------|
A|5----4----2----3-----------|
E|--------------------3----5-|


Intro [00:15]
G|----------------------------------------------|
D|----------------------------------------------|
A|5(16x)-3(6x)-3/-0(8X)----5(16x)-3(8x)---------|
E|----------------------5\--------------5--5--5-|


Verse [00:31]
G|----------------------------------------------------------------------|
D|----------------------------------------------------------------------|
A|3-----------------0------------------3(16x)---------------------------|
E|---------3----3\-------5\--1----3-----------3(16x)-5(16x)-1(8x)-3(8x)-|

[01:02]
G|------------------------------------------------------------------------|
D|------------------------------------------------------------------------|
A|---------------------------------------------------------333--3----5--5-|
E|5--5----555--5----333--3----333--3----555--5----555--5------------------|


Chorus [01:17]
G|--------------------------------------------------------------------------|
D|--------------------------------------------------------------------------|
A|5(8x)-4(8x)-2(8x)-3(8x)-2-222-3-3-3-3\------------------------------------|
E|----------------------------------------3(8x)-5(8x)-6(8x)-8-8-8--/8--8-8\-|

G|---------------------------------------------------|
D|---------------------------------------------------|
A|5(8x)-4(8x)-2(8x)-3(6x)-3/-------------------------|
E|---------------------------7-777-8-8-8-8\--3(8x)-5-|

[01:48]
G|---------------------|
D|---------------------|
A|5(16x)-3(8x)---------|
E|-------------5--5--5-|


Verse [01:55]
G|-----------------------------------------------------------------|
D|-----------------------------------------------------------------|
A|3--5--0--3--5--0-----------------------3--------3----------------|
E|------------------3--5--0--3--5--0--5-----0--5-----0--1--3--0--3-|

G|---------------------------------------|
D|---------------------------------------|
A|3(14x)-3/-----------0(16x)-------------|
E|----------3(14x)-3\--------1(8x)-3(8x)-|

[02:26]
G|------------------------------------------------------|
D|----------5h7-----------------------3h5-5-----5--3--5-|
A|------5-7-----------------------3-5-------3-5---------|
E|5--5----------5--5--3-5-5-3--3------------------------|

G|--------------------------------------|
D|----------5h7-------------------------|
A|------5-7-----------------3--3----3/5-|
E|5--5----------5--5--3-5-5-------------|


Chorus [02:41]
G|----------------------------------------------------------------------|
D|----------------------------------------------------------------------|
A|5(8x)-4(8x)-2(8x)-3(8x)-2-222-3(5x)-----------------------------------|
E|------------------------------------3(8x)-5(8x)-6(8x)-8-8-8--/8--8-8\-|

G|---------------------------------------------------|
D|---------------------------------------------------|
A|5(8x)-4(8x)-2(8x)-3(6x)-3/-------------------------|
E|---------------------------7-777-8-8-8-8\--3(8x)-5-|


Solo
G|-------------------------------------------------------------------------------------------------------------------|
D|-------------------------------------------------------------------------------------------------------------------|
A|5(8x)-7(8x)-4--------------------------4---------------------------4-----5----7--7(5x)-5\---------0--2----4--------|
E|---------------/7-7--7-5--/5-5-5-5-5\-----/7-7--7-5--5-5-5-5-4-5-7----/7---/7--------------2--4----------------/9\-|


Chorus [03:44]
G|-------------------------------------------------------------------------|
D|-------------------------------------------------------------------------|
A|5(8x)-4(8x)-2(8x)-3(8x)-2-222-3(5x)-3\-----------------------------------|
E|---------------------------------------3(8x)-5(8x)-6(8x)-8-8-8--/8--8-8\-|

G|-------------------------------------|
D|-------------------------------------|
A|5(8x)-4(8x)-2(8x)-3----2--3----------|
E|-----------------------------3(8x)-5-|


Outro [04:16]
G|----------------------------------------------|
D|----------------------------------------------|
A|5(16x)-3(6x)-3/-0(8x)----5(16x)-3(8x)---------|
E|----------------------5\--------------5--5--5-|

Tabbed by Muya R..
Ya~ha~..!!



Last edited by muya on Thu Apr 21, 2011 1:23 am; edited 1 time in total (Reason for editing : change the tab..)

Back to top Go down