Hitotsu Dake bass tab [Page 1 of 1]

Hitotsu Dake bass tab
Posted on Mon Nov 08, 2010 4:39 am


bemnage

Mainstream Artist
Mainstream Artist
http://www.youtube.com/user/bemnage?feature=mhum
I got this from the BEST SCANDAL bandscore
Copy it into a notepad for a better view

Code:
intro (00:09)

|-----------------------------------|
|-----------------------------------|
|--3-------5----5-5-------2-3-3-3---|
|-----------------------------------|

|-------------------------------------|
|-------------------------------------|
|------2-3-3-2-3-3-2-3--3--3--3-3-5-5-| ( X3)
|-------------------------------------|

|---------|
|---------|
|-3(X14)-5|
|---------|


Prechorus(00:48)

|--------------------------------------------------------------------------------------|
|--------------------------------------------------------------------------------------|
|-12\-----------------------7----6---5---4---------------3--4--4(X3)--5(X6)-3--2--2(X3)|
|-----5--5-5--7--7--7-5--7-------------------5--7--7(X3)-------------------------------|

Chorus(01:00)

|---------------------------------------------------------------------------------------------------------------------------|
|---------------------------------------------------------------------------------------------------------------------------|
|-3--3(X6)-5(X8)-------------3(X8)-5(X6)-5---------------------------3--3(X6)-5(X8)-------------3(X8)-5(X8)-----------------|
|----------------0(X8)-5(X8)-----------------0--2--2-2--3--5--5((X3)----------------0(X8)-5(X8)-------------0(X7)-5--5(X6)-0|

|------------------------|----------------------------------------------------------------------|
|------------------------|----------------------------------------------------------------------|
|------------------------|--2-3-3-3-2-3-3-2-3--3--3-3-5-5---2-3-3-2-3-3-2-3--3--3-3-5-5--3-3-3--|
|-5---5-5---5-7--7(X3)-7\|----------------------------------------------------------------------|


Verse 2

|--------------------------------------------------------------------------------------------|
|----------------------------------5\--------------------------------------------------------|
|--3-3--------3(X16)-2(X16)-3(X13)--------5------------------------7--7-7-5-7----------------|
|-------3(X16--------------------------5----5-5--5-7--7--7-5-7--7-------------7-5-5--5-(X3)-5|

Prechorus 2

|---------------------------------------------------------------------------------------|
|---------------------------------------------------------------------------------------|
|----------------------------7----6---5---4--------------------------7----6---5---4-----|
|-5--5-5-5--5-7--7--7-5-7-7-------------------5--5-5--7--7--7-5-7-7-------------------0-|

|----------------------------------------------------|
|----------------------------------------------------|
|-------------3--4--4(X3)-5(X6)-3-2--2(X3)--------14\|
|-5--7--7-7-7----------------------------------------|


Chorus 2

|-------------------------------------------------------------------------------------------------------7(X5)---|
|-----------------------------------------------------------------------------------------------------7-------7-|
|-3--3(X6)-5(X8)-------------3(X8)-5(X6)-5---------------------------3--3(X6)-5(X8)-------------3(X8)-----------|
|----------------0(X8)-5(X8)-----------------0--2--2-2--3--5--5((X3)----------------0(X8)-5(X8)-----------------|


Ending chorus

|---------------------------------------------------------------------------------------------------------------------------|
|---------------------------------------------------------------------------------------------------------------------------|
|-3--3(X6)-5(X8)-------------3(X8)-5(X6)-5---------------------------3--3(X6)-5(X8)-------------3(X8)-5(X8)-----------------||
|----------------0(X8)-5(X8)-----------------0--2--2-2--3--5--5((X3)----------------0(X8)-5(X8)-------------0(X7)-5--5(X6)-0|


|------------------------|
|------------------------|
|------------------------|
|-5---5-5---5-7--7(X3)-7\|

|---------------------------------|
|---------------------------------|
|--2-3-3-3-2-3-3-2-3--3--3-3-5-5--|(X3)
|---------------------------------|

|---------------5(X5)------|
|---------5(X4)-------5----|
|-2-3(X4)------------------|
|------------------------3\|

Ring me if there's anything wrong


_________________________________________________________________________________________________


credits to lale [=3

Youtube Channel

TOMO in AFAX
TOMO: We went to the night safari. Hippopotamus.... you know? very very very......... smelly. I die.
LOL
Back to top Go down

Re: Hitotsu Dake bass tab
Posted on Wed Nov 10, 2010 9:26 pm


Noodles

Global Moderator
Global Moderator
http://atarashiimusic.com
Thanks for the tab bem, I also deleted the 2 other post due to the question being solved.


_________________________________________________________________________________________________
Back to top Go down