Shining Sun Bass Tab..
Posted on Mon Nov 15, 2010 1:46 am


muya

Indie Artist
Indie Artist
https://www.youtube.com/channel/UCxS_0_TYNXbjkcOkkZiyy9g
check it out..

Spoiler:
SCANDAL - Shining Sun


Intro
G|--------------------------------------|
D<--------------------------------------|
A|---------3(8x)-1-1-1-----3\1----------|
E|8\-1(8x)-------------1/3------1/3-5\3-|


Verse
G|-------2h3-0-2--------------------------2h3-0-2------------------|
D<---------------3--------2h3---------------------3--------2h3-----|
A|1(11x)----------------------3-3--1(11x)----------------------3-3-|
E|-----------------1(11x)---------------------------1(11x)---------|

G|----------------------------------------------------------------------------------|
D|1--1--1-1-1--1--0--1-----0--1--0--1--0--------------------------------------------|
A|------------------------------------------0------------0-1--1(8x)-4(8x)-3-3--1--3-|
E|---------------------1------------------1---3-1--3-3-3----------------------------|


Chorus
G|------------------------------2-3-0-2----------------------------------3--2-0---|
D<------------------0(7x)---------------3--------------------0(7x)--------------3-|
A|------3(4x)-4(4x)-------1--1-------------------3(4x)-4(4x)-------1--1-----------|
E|1(8x)------------------------------------1(8x)----------------------------------|

G|------------------------------2h3-2-0-------------------------------3--2-0-|
D<------------------0(7x)----------------------------------0(7x)-------------|
A|------3(4x)-4(4x)-------1--1-----------------3(4x)-4(4x)-------1--1--------|
E|1(8x)----------------------------------1(8x)-------------------------------|


Verse
G|-----------------------------------------------------------------------------------|
D<---------------------------------------------3-----------------------------------3-|
A|------------1-1-1-1--1-1-1-0--------------------1-1-1-1--1-1-1-0-------------------|
E|1----3/5\3--------------------1-1-1-1--1-1-1----------------------1-1-1-1--1-1-1---|

G|--------------------------------------------------------------------------------------|
D<-------7h8-5-7----------2h3-------------7h8-5-7----------2h3------1-1-1--1-1-1--1-0-1-|
A|---------------8------------3-3-----------------8------------3-3----------------------|
E|6(11x)-----------1(11x)----------6(11x)-----------1(11x)------------------------------|

G|------------------------------------------|
D|3-----------------------------------------|
A|-----3--4--5--------------3--4--5---------|
E|----------------6----1---------------6--6-|


Chorus
G|------------------------------2-3-0-2----------------------------------3--2-0---|
D<------------------0(7x)---------------3--------------------0(7x)--------------3-|
A|------3(4x)-4(4x)-------1--1-------------------3(4x)-4(4x)-------1--1-----------|
E|1(8x)------------------------------------1(8x)----------------------------------|

G|----------------------------2-3-0-2----------------------------------3--2-0---|
D<-----------7-5--0(7x)---------------3--------------------0(7x)--------------3-|
A|------3--4------------1--1-------------------3(4x)-4(4x)-------1--1-----------|
E|1(7x)----------------------------------1(8x)----------------------------------|

G|------------------------------2h3-2-0-------------------------------3--2-0-|
D<------------------0(7x)----------------------------------0(7x)-------------|
A|------3(4x)-4(4x)-------1--1-----------------3(4x)-4(4x)-------1--1--------|
E|1(8x)----------------------------------1(8x)-------------------------------|


Outro [03:18]
G|-------------------------------------------------------------------------------------------------------|
D<-------------------------------------------------------------------------------------------------------|
A|------3(8x)-1--1-----3\1-----------------3(8x)-1--1-----1-1--------------------------------------------|
E|1(8x)------------1/3------1/3-5-3--1(8x)------------1/3------1/3-5-3--------1-3/5\3-1--------1-3/5\3-1-|

Tabbed by Muya R..
Ya~ha~..!!
gp



Last edited by muya on Sat Jun 16, 2012 7:01 am; edited 3 times in total (Reason for editing : change the tab..)

Back to top Go down

Re: Shining Sun Bass Tab..
Posted on Mon Nov 15, 2010 7:35 am


MadOrange

Shiroten Performer
Shiroten Performer
wooooow!!!
awesome~! i was just thinking yesterday., hoping there would be bass tab for this song..and Hurray~!! there is!!!!yay!!thank u so much!! i totally love this song~"Shining Sun"~kyaaaaaaahh~!! Cheer Onion

i'm eager to learn this~!!! Onion Shine


_________________________________________________________________________________________________

                                                                                                                                            otakumi
Back to top Go down

Re: Shining Sun Bass Tab..
Posted on Tue Nov 30, 2010 4:35 am


sasuke21

Caless Student
Caless Student
were can I get the mp3 of this song?

Back to top Go down

Re: Shining Sun Bass Tab..
Posted on Tue Dec 07, 2010 12:14 am


anzeyy026

Caless Student
Caless Student
we have the same tabs for this song Happy


_________________________________________________________________________________________________
ß@sS!s†
Back to top Go down