Jibba

Mainstream Artist
Mainstream Artist
http://www.youtube.com/user/xJibba?feature=mhee
You thanked this post! -
Thanks received by this post:

Message reputation : 100% (1 vote)



Tabbed by Jibba, Copy into Notepad for best viewing
Guitar Pro: http://www.mediafire.com/?9t4x9foa8m4m6bb
Text File: http://www.mediafire.com/?6wqmnm3kd3t6umf

Spoiler:
Koshi Tan Tan
Tabbed by Jibba
(text generated from Guitar Pro)

Duration Legend
---------------
W - whole
H - half
Q - quarter
E - 8th
S - 16th

Tablature Legend
----------------
L - tied note
x - dead note
g - grace note
(n) - ghost note
> - accentuded note
NH - natural harmonic
AH - artificial harmonic
TH - tapped harmonic
SH - semi harmonic
PH - pitch harmonic
h - hammer on
p - pull off
b - bend
br - bendRelease
pb - preBend
pbr - preBendRelease
brb - bendReleaseBend



Clean Guitar
Q E E E E E E Q E E E E E E
E||--------------------------|-------------------------|
B||----------6---------------|----------6--------6--8--|
G||--7----7--5--------5h--7--|--7----7--5-----7--------|
D||--7----7--------7---------|--7----7-----------------|
A||--------------------------|-------------------------|
E||--------------------------|-------------------------|


Q E Q E E E Q E E E E E E
--------------------------|--------------------------|
--8br----6--8----6--------|----------6---------------|
--7br----5--7----5--7--5--|--7----7--5--------5h--7--|
--------------------7--5--|--7----7--------7---------|
--------------------------|--------------------------|
--------------------------|--------------------------|


Q E E E E E E Q E E E E E E Q E Q E E E
--------------------------|-------------------------|--------------------------|
----------6---------------|----------6--------6--8--|--8br----6--8----6--------|
--7----7--5--------5h--7--|--7----7--5-----7--------|--7br----5--7----5--7--5--|
--7----7--------7---------|--7----7-----------------|--------------------7--5--|
--------------------------|-------------------------|--------------------------|
--------------------------|-------------------------|--------------------------|


Q E E E E E E Q E E E E E E Q E E E E E E
--------------------------|--------------------------|-------------------------|
----------6---------------|----------6---------------|----------6--------6--8--|
--7----7--5--------5h--7--|--7----7--5--------5h--7--|--7----7--5-----7--------|
--7----7--------7---------|--7----7--------7---------|--7----7-----------------|
--------------------------|--------------------------|-------------------------|
--------------------------|--------------------------|-------------------------|

Q E Q E E E Q E E E E E E
--------------------------|--------------------------|
--8br----6--8----6--------|----------6---------------|
--7br----5--7----5--7--5--|--7----7--5--------5h--7--|
--------------------7--5--|--7----7--------7---------|
--------------------------|--------------------------|
--------------------------|--------------------------|

Distortion Guitar
E||-------|-------|-------|-------|-------|-------|-------|-------|-------|
B||-------|-------|-------|-------|-------|-------|-------|-------|-------|
G||-------|-------|-------|-------|-------|-------|-------|-------|-------|
D||-------|-------|-------|-------|-------|-------|-------|-------|-------|
A||-------|-------|-------|-------|-------|-------|-------|-------|-------|
E||-------|-------|-------|-------|-------|-------|-------|-------|-------|


Q E Q E E E Q E E E E E E
-------|-------|------------------------|-------------------------|
-------|-------|----------6-------8--6--|----------6--------------|
-------|-------|--7----L--5----7--7--7--|--7----7--5--------------|
-------|-------|--7----L-------7--------|--7----7-----------------|
-------|-------|------------------------|--5----------------3--4--|
-------|-------|------------------------|----------------5--------|


Q E E E E E E Q E E E E E E Q E E E E S S E
-------------------------|-------------------------|---------------------------|
----------6--------------|-------------------------|----------6--------6h-8-6--|
--7----7--5--------------|----------5--------------|--7----7--5-----7--7--7-7--|
--7----7-----------------|--7----7--7--------------|--7----7--------7----------|
--5----------------3--4--|--7----7-----------3--4--|--5------------------------|
----------------5--------|--5-------------5--------|---------------------------|


Q E E E E E E Q E E E E E E Q E E E E E E
-------------------------|-------------------------|-------------------------|
----------6--------------|----------6--------------|-------------------------|
--7----7--5--------------|--7----7--5--------------|----------5--------------|
--7----7-----------------|--7----7-----------------|--7----7--7--------------|
--5----------------3--4--|--5----------------3--4--|--7----7-----------3--4--|
----------------5--------|----------------5--------|--5-------------5--------|


E E E Q E E E Q E E E E E E Q E E E E E E
-------------------------|-------------------------|-------------------------|
-----------6-------8--6--|-------------------------|-------------------------|
--7--5--7--7----7--7--7--|-------------------------|-------------------------|
--7--5--7-------7--------|-------------------------|-------------------------|
-------------------------|--5----3--5-----5--3--4--|--5----3--5-----5--3--4--|
-------------------------|-------------------------|-------------------------|


E E E E E E E E Q E E E E E E Q E E E E E E
--------------------------|-------------------------|-------------------------|
--------------------------|-------------------------|-------------------------|
--------------------------|-------------------------|-------------------------|
--------------------------|-------------------------|-------------------------|
-----------3--------3--4--|--5----3--5-----5--3--4--|--5----3--5-----5--3--4--|
--5-----5--------5--------|-------------------------|-------------------------|


Q E E E E E E E E E E E E E E
-------------------------|--------------------------|
-------------------------|--------------------------|
-------------------------|--------------------------|
-------------------------|--------------------------|
--5----3--5-----5--3--4--|-----------3--------3--4--|
-------------------------|--5-----5--------5--------|


E E E E E S S Q Q E E E E E E Q E E E E E E
---------------------------|-------------------------|-------------------------|
---------------------------|-------------------------|-------------------------|
---------------------------|-------------------------|-------------------------|
-----------3-----3h-5-3----|-------------------------|-------------------------|
--5--3--5------------------|--5----3--5-----5--3--4--|--5----3--5-----5--3--4--|
---------------------------|-------------------------|-------------------------|


E E E E E E E E Q E E E E E E Q E E E E E E
--------------------------|-------------------------|-------------------------|
--------------------------|-------------------------|-------------------------|
--------------------------|-------------------------|-------------------------|
--------------------------|-------------------------|-------------------------|
-----------3--------3--4--|--5----3--5-----5--3--4--|--5----3--5-----5--3--4--|
--5-----5--------5--------|-------------------------|-------------------------|


Q E E E E E E E E E E E E E E
-------------------------|--------------------------|
-------------------------|--------------------------|
-------------------------|--------------------------|
-------------------------|--------------------------|
--5----3--5-----5--3--4--|-----------3--------3--4--|
-------------------------|--5-----5--------5--------|


E E E E S S E E E H H E E E H E
----------------------------|--------------------|-----------------------|
----------------------------|--------------------|-----------------------|
----------------------------|--------------------|-----------------------|
--------3-----3h-5-3--------|--------------------|--7--5-----------------|
--5--5-----5----------5--3--|--5--------8--------|--5--3--7--5--------L--|
----------------------------|--3--------6--------|--------5--3--------L--|


H H E E E E H H H
---------------------|-------------------------|--------------------|
---------------------|-------------------------|--------------------|
---------------------|-------------------------|--------------------|
--7--------10--------|--12--10--5--7--L--------|--------------------|
--5---------8--------|--10---8--3--5--L--------|--5--------8--------|
---------------------|-------------------------|--3--------6--------|


E E E H E E E E E E E E E
-----------------------|--------------------------|
-----------------------|--------------------------|
-----------------------|--------------------------|
--7--5-----------------|--------------------------|
--5--3--7--5--------L--|--------------------------|
--------5--3--------L--|--5--3--5--3--5--3--5--3--|


HERE WE GO!
E E E Q E E E E E E E E E E E
-----------------------------------|-----|--------------------------|
-----------8----9--10--11----------|-----|--------------------------|
--9--7--9--------------------------|-----|--------------------------|
-----------------------------------|-----|--9--9--7--9-----9--7--8--|
-----------------------------------|-----|--7--7--5--7-----7--5--6--|
-----------------------------------|-----|--------------------------|


E E E E E E E E E E E E E E E E Q Q Q Q
--------------------------|--------------------------|----------------------|
--------------------------|--------------------------|----------------------|
--------------------------|--------------------------|----------------------|
--9--9--7--9-----9--7--8--|--9--9--7--9-----9--7--8--|--9-------------------|
--7--7--5--7-----7--5--6--|--7--7--5--7-----7--5--6--|--7-------------------|
--------------------------|--------------------------|----------------------|


E E E E E E E E E E E E E E E E
--------------------------|--------------------------|
--------------------------|--------------------------|
--------------------------|--------------------------|
--9--9--7--9-----9--7--8--|--9--9--7--9-----9--7--8--|
--7--7--5--7-----7--5--6--|--7--7--5--7-----7--5--6--|
--------------------------|--------------------------|


E E E E E E E E E E E E E E E E Q Q Q Q
--------------------------|--------------------------|----------------------||
--------------------------|--------------------------|----------------------||
--------------------------|--------------------------|----------------------||
--9--9--7--9-----9--7--8--|--9--9--7--9-----9--7--8--|--9---------9---------||
--7--7--5--7-----7--5--6--|--7--7--5--7-----7--5--6--|--7----9----7---------||
--------------------------|--------------------------|-------7--------------||




Distortion Guitar 2
E||-------|-------|-------|-------|-------|-------|-------|-------|-------|
B||-------|-------|-------|-------|-------|-------|-------|-------|-------|
G||-------|-------|-------|-------|-------|-------|-------|-------|-------|
D||-------|-------|-------|-------|-------|-------|-------|-------|-------|
A||-------|-------|-------|-------|-------|-------|-------|-------|-------|
E||-------|-------|-------|-------|-------|-------|-------|-------|-------|


-------|-------|-------|-------|-------|-------|-------|-------|-------|-------|
-------|-------|-------|-------|-------|-------|-------|-------|-------|-------|
-------|-------|-------|-------|-------|-------|-------|-------|-------|-------|
-------|-------|-------|-------|-------|-------|-------|-------|-------|-------|
-------|-------|-------|-------|-------|-------|-------|-------|-------|-------|
-------|-------|-------|-------|-------|-------|-------|-------|-------|-------|


-------|-------|-------|-------|-------|-------|-------|-------|-------|
-------|-------|-------|-------|-------|-------|-------|-------|-------|
-------|-------|-------|-------|-------|-------|-------|-------|-------|
-------|-------|-------|-------|-------|-------|-------|-------|-------|
-------|-------|-------|-------|-------|-------|-------|-------|-------|
-------|-------|-------|-------|-------|-------|-------|-------|-------|


Q E E E E E E Q E E E E E E E E E E E E E E
-------------------------|-------------------------|--------------------------|
-------------------------|-------------------------|--------------------------|
-------------------------|-------------------------|--------------------------|
-------------------------|-------------------------|--------------------------|
-------------------------|-------------------------|--------------------------|
--5----3--5-----5--3--4--|--5----3--5-----5--3--4--|--5-----5--3-----5--3--4--|


Q E E E E E E Q E E E E E E Q E E E E E E
-------------------------|-------------------------|-------------------------|
-------------------------|-------------------------|-------------------------|
-------------------------|-------------------------|-------------------------|
-------------------------|-------------------------|-------------------------|
-------------------------|-------------------------|-------------------------|
--5----3--5-----5--3--4--|--5----3--5-----5--3--4--|--5----3--5-----5--3--4--|


E E E E E E E E E E E E S S E E E
--------------------------|----------------------------|-----|-----|-----|-----|
--------------------------|----------------------------|-----|-----|-----|-----|
--------------------------|----------------------------|-----|-----|-----|-----|
--------------------------|----------------------------|-----|-----|-----|-----|
--------------------------|--------3-----3h-5-3--------|-----|-----|-----|-----|
--5-----5--3-----5--3--4--|--5--5-----5----------5--3--|-----|-----|-----|-----|


E E E Q E E E
-----|-----|-----|-------------8----9--10--11--|-----|-----|-----|-----|-----|
-----|-----|-----|--10--8--10------------------|-----|-----|-----|-----|-----|
-----|-----|-----|-----------------------------|-----|-----|-----|-----|-----|
-----|-----|-----|-----------------------------|-----|-----|-----|-----|-----|
-----|-----|-----|-----------------------------|-----|-----|-----|-----|-----|
-----|-----|-----|-----------------------------|-----|-----|-----|-----|-----|


-----|-----|-----|-----|-----||
-----|-----|-----|-----|-----||
-----|-----|-----|-----|-----||
-----|-----|-----|-----|-----||
-----|-----|-----|-----|-----||
-----|-----|-----|-----|-----||

Enjoy! Can't wait for the DVD that comes out on Dec. 22, Released, Subbed, etc.



Last edited by Jibba on Fri May 13, 2011 11:59 pm; edited 5 times in total

Back to top Go down

xxYURIxx

Caless Student
Caless Student
ano...Is there a link where I can download the anime....It seems cool....


_________________________________________________________________________________________________
OTAKU YURI-IST

"True Friends: Houkago Tea Time will always be after school"
Back to top Go down

Jibba

Mainstream Artist
Mainstream Artist
http://www.youtube.com/user/xJibba?feature=mhee
It's not out yet, Comes out Dec. 22, 2010 in Japanese (not sure yet if there are gonna be Eng subs on the DVD)

But it looks really good! I can't wait.
Edit: Released, subbed, find it!



Last edited by Jibba on Mon Dec 27, 2010 10:52 pm; edited 1 time in total

Back to top Go down

Hollowkenshin

Caless Student
Caless Student
http://hollow-kenshin.deviantart.com/
Fantastic tab. Finally a guitar pro tab thats good Happy

Back to top Go down

chopstickattack

Shiroten Performer
Shiroten Performer
Great stuff Jibba! Nice One keep up the awesome work!

Back to top Go down

anzeyy026

Caless Student
Caless Student
WOW Happy) its awesome dude XD keep it up ! Clap


_________________________________________________________________________________________________
ß@sS!s†
Back to top Go down

chiy102

International Performer
International Performer
Thank you for the Guitar Pro tabs~~

Back to top Go down

tydu_neko

Caless Student
Caless Student
Good job ! Thx =3


_________________________________________________________________________________________________
/Alt.
Back to top Go down