Jibba

Mainstream Artist
Mainstream Artist
http://www.youtube.com/user/xJibba?feature=mhee
You thanked this post! -
Thanks received by this post:

Message reputation : 100% (1 vote)


Roppongi Shinjuu Tabs

Guitar Pro Tab (Guitar and Drums): http://www.mediafire.com/?tni72svbi9fdf70
Midi: http://www.mediafire.com/?j1wvtvsdz7zfngg

Text Based (copy into Notepad)

Legend (Random Letters fixed)
Spoiler:

---------------
W - whole
H - half
Q - quarter
E - 8th
S - 16th
T - 32nd
X - 64th
. - note dotted
|-n-| - n-tuplets


Tablature Legend
----------------
L - tied note
x - dead note
g - grace note
(n) - ghost note
> - accentuded note
NH - natural harmonic
AH - artificial harmonic
TH - tapped harmonic
SH - semi harmonic
PH - pitch harmonic
h - hammer on
p - pull off
b - bend
br - bendRelease
pb - preBend
pbr - preBendRelease
brb - bendReleaseBend

Rhythm Guitar
Spoiler:
Rhythm

Intro
E||-------|--2----------------|-------------------|--------------------------|
B||-------|--2----------------|-------------------|--------------------------|
G||-------|--4----------------|-------------------|--8-----8-----6-----6--4--|
D||-------|--4----------------|-------------------|--8-----8-----6-----6--4--|
A||-------|--2----------------|-------------------|--6-----6-----4-----4--2--|
E||-------|-------------------|-------------------|--------------------------|



--------------------------|--------------------------|
--------------------------|--------------------------|
-----4-----4-----4-----4--|--4-----4-----6-----6--8--|
-----4-----4-----4-----4--|--4-----4-----6-----6--8--|
-----2-----2-----2-----2--|--2-----2-----4-----4--6--|
--------------------------|--------------------------|



--------------------------|--------------------------|
--------------------------|--------------------------|
-----8-----8-----8-----8--|--8-----8-----6-----6--4--|
-----8-----8-----8-----8--|--8-----8-----6-----6--4--|
-----6-----6-----6-----6--|--6-----6-----4-----4--2--|
--------------------------|--------------------------|



--------------------------|--------------------------|
--------------------------|--------------------------|
-----4-----4-----4-----4--|--4-----4-----6-----6--8--|
-----4-----4-----4-----4--|--4-----4-----6-----6--8--|
-----2-----2-----2-----2--|--2-----2-----4-----4--6--|
--------------------------|--------------------------|




--------------------------|--------------------------|
--------------------------|--------------------------|
-----8-----8-----8-----8--|--6--------6--------6-----|
-----8-----8-----8-----8--|--6--------6--------6-----|
-----6-----6-----6-----6--|--4--4--4--4--4--4--4--4--|
--------------------------|--------------------------|




--------------------------|--------------------------|
--------------------------|--------------------------|
-----6--------6-----------|--6--------6--------6-----|
-----6--------6-----------|--6--------6--------6-----|
--4--4--4--4--4--4--4--4--|--4--4--4--4--4--4--4--4--|
--------------------------|--------------------------|


Verse
--------------------------|------------------------|----------------------|
--------------------------|------------------------|----------------------|
-----6--------6--6--------|--8--8--8------------8--|-----8--8-------------|
-----6--------6--6--------|--8--8--8------------8--|-----8--8-------------|
--4--4--4--4--4--4--------|--6--6--6------------6--|-----6--6-------------|
--------------------------|------------------------|----------------------|



-----------------------|------------------------|--------------------------|
-----------------------|------------------------|--------------------------|
--4--4--4-----------4--|-----4--4-------4-------|--------------------------|
--4--4--4-----------4--|-----4--4-------4----6--|--6--6--6--6--6--6--6--6--|
--2--2--2-----------2--|-----2--2-------2----6--|--6--6--6--6--6--6--6--6--|
-----------------------|---------------------4--|--4--4--4--4--4--4--4--4--|



--------------------------|--------------------------|-----------------------|
--------------------------|--------------------------|-----------------------|
--------------------------|--3--3--3--3--3--3--3--3--|--3--------------6--8--|
--3--3--3--3--3--3--3--3--|--3--3--3--3--3--3--3--3--|--3--------------6--8--|
--3--3--3--3--3--3--3--3--|--1--1--1--1--1--1--1--1--|--1--------------4--6--|
--1--1--1--1--1--1--1--1--|--------------------------|-----------------------|



--------------------------|--------------------------|
--------------------------|--------------------------|
-----8--8--8--8--8--8--8--|--8--8--8--8--8--8--8--8--|
-----8--8--8--8--8--8--8--|--8--8--8--8--8--8--8--8--|
-----6--6--6--6--6--6--6--|--6--6--6--6--6--6--6--6--|
--------------------------|--------------------------|



--------------------------|--------------------------|
--------------------------|--------------------------|
--------------------------|--------------------------|
--9--9--9--9--9--9--9--9--|--9--9--9--9--9--9--8--6--|
--9--9--9--9--9--9--9--9--|--9--9--9--9--9--9--8--6--|
--7--7--7--7--7--7--7--7--|--7--7--7--7--7--7--6--4--|



--------------------------|--------------------------|
--------------------------|--------------------------|
--------------------------|--------------------6--8--|
-----6--6--6--6--6--6--6--|--8--8--8--8--8--8--6--8--|
-----6--6--6--6--6--6--6--|--8--8--8--8--8--8--4--6--|
-----4--4--4--4--4--4--4--|--6--6--6--6--6--6--------|



Pre-chorus
--------------------------|------------------------|--------------------------|
--------------------------|------------------------|--------------------------|
-----8--8-----6--8--6--8--|-----8--8---------------|--------------------------|
-----8--8-----6--8--6--8--|-----8--8-------6----8--|-----8--8--8--8--8--8--8--|
-----6--6-----------------|-----6--6-------6----8--|-----8--8--8--8--8--8--8--|
--------------------------|----------------4----6--|-----6--6--6--6--6--6--6--|




--------------------------|--------------------------|
--------------------------|--------------------------|
--------------------------|--------------------------|
--8--8--8--8--8--9--9--8--|-----8--8--8--8--8--8--8--|
--8--8--8--8--8--9--9--8--|-----8--8--8--8--8--8--8--|
--6--6--6--6--6--7--7--6--|-----6--6--6--6--6--6--6--|




--------------------------|--------------------------|
--------------------------|--------------------------|
--------------------------|--------------------------|
--8--8--8--8--8--6--6--8--|-----8--8--8--8--6--6--8--|
--8--8--8--8--8--6--6--8--|-----8--8--8--8--6--6--8--|
--6--6--6--6--6--4--4--6--|-----6--6--6--6--4--4--6--|




--------------------------|--------------------------|----------------------|
--------------------------|--------------------------|----------------------|
--------------------------|--------------------------|----------------6--8--|
-----8--8--8--8--6--6--8--|-----8--8--8--8--8--8--8--|--8-------------6--8--|
-----8--8--8--8--6--6--8--|-----8--8--8--8--8--8--8--|--8-------------4--6--|
-----6--6--6--6--4--4--6--|-----6--6--6--6--6--6--6--|--6-------------------|


Chorus
--------------------------|--------------------------|
--------------------------|--------------------------|
-----8--8--8--8--8--8--8--|--8--8--8--8--8--8--8--8--|
-----8--8--8--8--8--8--8--|--8--8--8--8--8--8--8--8--|
-----6--6--6--6--6--6--6--|--6--6--6--6--6--6--6--6--|
--------------------------|--------------------------|



--------------------------|--------------------------|
--------------------------|--------------------------|
--------------------------|--------------------------|
--3--3--3--3--3--3--3--3--|--3--3--3--3--3--3--3--3--|
--3--3--3--3--3--3--3--3--|--3--3--3--3--3--3--3--3--|
--1--1--1--1--1--1--1--1--|--1--1--1--1--1--1--1--1--|




--------------------------|--------------------------|-----------------------|
--------------------------|--------------------------|-----------------------|
--------------------------|--------------------------|-----------------------|
--4--4--4--4--4--4--4--4--|--4--4--4--4--4--4--4--4--|-----------------------|
--4--4--4--4--4--4--4--4--|--4--4--4--4--4--4--4--4--|-----------1------2----|
--2--2--2--2--2--2--2--2--|--2--2--2--2--2--2--2--2--|--4--4--4--------------|



-----------------------|--------------------------|--------------------------|
-----------------------|--------------------------|--------------------------|
-----------------3--8--|-----8--8--8--8--8--8--8--|--8--8--8--8--8--8--8--8--|
---------3----1-----8--|-----8--8--8--8--8--8--8--|--8--8--8--8--8--8--8--8--|
--1-----------------6--|-----6--6--6--6--6--6--6--|--6--6--6--6--6--6--6--6--|
-----------------------|--------------------------|--------------------------|



--------------------------|--------------------------|-------------------------|
--------------------------|--------------------------|-------------------------|
--------------------------|--------------------------|-------------------------|
--3--3--3--3--3--3--3--3--|--3--3--3--3--3--3--3--3--|--4----4--4--4--4--4--4--|
--3--3--3--3--3--3--3--3--|--3--3--3--3--3--3--3--3--|--4----4--4--4--4--4--4--|
--1--1--1--1--1--1--1--1--|--1--1--1--1--1--1--1--1--|--2----2--2--2--2--2--2--|




--------------------------|-----------------------|-----------------------|
--------------------------|-----------------------|-----------------------|
--------------------------|-----------------------|-----------------3-----|
--4--4--4--4--4--4--4--4--|-----------------------|---------3----1--------|
--4--4--4--4--4--4--4--4--|-----------1------2----|--1--------------------|
--2--2--2--2--2--2--2--2--|--4--4--4--------------|-----------------------|


Intro Repeat
--------------------------|--------------------------|
--------------------------|--------------------------|
--8-----8-----6-----6--4--|-----4-----4-----4-----4--|
--8-----8-----6-----6--4--|-----4-----4-----4-----4--|
--6-----6-----4-----4--2--|-----2-----2-----2-----2--|
--------------------------|--------------------------|



--------------------------|--------------------------|
--------------------------|--------------------------|
--4-----4-----6-----6--8--|-----8-----8-----8-----8--|
--4-----4-----6-----6--8--|-----8-----8-----8-----8--|
--2-----2-----4-----4--6--|-----6-----6-----6-----6--|
--------------------------|--------------------------|




--------------------------|--------------------------|
--------------------------|--------------------------|
--6--------6--------6-----|-----6--------6-----------|
--6--------6--------6-----|-----6--------6-----------|
--4--4--4--4--4--4--4--4--|--4--4--4--4--4--4--4--4--|
--------------------------|--------------------------|



Verse
--------------------------|--------------------------|-------------------------|
--------------------------|--------------------------|-------------------------|
--6--------6--------6-----|-----6--------6--6--6--8--|-----8--8-------------8--|
--6--------6--------6-----|-----6--------6--6--6--8--|-----8--8-------------8--|
--4--4--4--4--4--4--4--4--|--4--4--4--4--4--4--4--6--|-----6--6-------------6--|
--------------------------|--------------------------|-------------------------|



-------------------------|-------------------------|-------------------------|
-------------------------|-------------------------|-------------------------|
-----8--8-------3-----4--|-----4--4-------------4--|-----4--4-------4--------|
-----8--8-------3-----4--|-----4--4-------------4--|-----4--4-------4-----6--|
-----6--6-------1-----2--|-----2--2-------------2--|-----2--2-------2-----6--|
-------------------------|-------------------------|----------------------4--|



-------------------------|-------------------------|--------------------------|
-------------------------|-------------------------|--------------------------|
-------------------------|-------------------------|--------------------------|
-----6--6-------------3--|-----3--3-------3--------|--------------------------|
-----6--6-------------3--|-----3--3-------3-----1--|-----1--4--1--1--4--1--1--|
-----4--4-------------1--|-----1--1-------1--------|--------------------------|



-------------------------|--------------------------|--------------------------|
-------------------------|--------------------------|--------------------------|
----------------6-----8--|-----8--8--8--8--8--8--8--|--8--8--8--8--8--8--8--8--|
----------------6-----8--|-----8--8--8--8--8--8--8--|--8--8--8--8--8--8--8--8--|
--4--1----------4-----6--|-----6--6--6--6--6--6--6--|--6--6--6--6--6--6--6--6--|
-------------------------|--------------------------|--------------------------|



--------------------------|--------------------------|
--------------------------|--------------------------|
--------------------------|--------------------------|
--9--9--9--9--9--9--9--9--|--9--9--9--9--9--9--8--6--|
--9--9--9--9--9--9--9--9--|--9--9--9--9--9--9--8--6--|
--7--7--7--7--7--7--7--7--|--7--7--7--7--7--7--6--4--|



--------------------------|--------------------------|
--------------------------|--------------------------|
--------------------------|--------------------6--8--|
-----6--6--6--6--6--6--6--|--8--8--8--8--8--8--6--8--|
-----6--6--6--6--6--6--6--|--8--8--8--8--8--8--4--6--|
-----4--4--4--4--4--4--4--|--6--6--6--6--6--6--------|



Pre-Chorus
--------------------------|------------------------|--------------------------|
--------------------------|------------------------|--------------------------|
-----8--8-----6--8--6--8--|-----8--8---------------|--------------------------|
-----8--8-----6--8--6--8--|-----8--8-------6----8--|-----8--8--8--8--8--8--8--|
-----6--6-----------------|-----6--6-------6----8--|-----8--8--8--8--8--8--8--|
--------------------------|----------------4----6--|-----6--6--6--6--6--6--6--|




--------------------------|--------------------------|
--------------------------|--------------------------|
--------------------------|--------------------------|
--8--8--8--8--8--9--9--8--|-----8--8--8--8--8--8--8--|
--8--8--8--8--8--9--9--8--|-----8--8--8--8--8--8--8--|
--6--6--6--6--6--7--7--6--|-----6--6--6--6--6--6--6--|




--------------------------|--------------------------|
--------------------------|--------------------------|
--------------------------|--------------------------|
--8--8--8--8--8--6--6--8--|-----8--8--8--8--6--6--8--|
--8--8--8--8--8--6--6--8--|-----8--8--8--8--6--6--8--|
--6--6--6--6--6--4--4--6--|-----6--6--6--6--4--4--6--|




--------------------------|--------------------------|----------------------|
--------------------------|--------------------------|----------------------|
--------------------------|--------------------------|----------------6--8--|
-----8--8--8--8--6--6--8--|-----8--8--8--8--8--8--8--|--8-------------6--8--|
-----8--8--8--8--6--6--8--|-----8--8--8--8--8--8--8--|--8-------------4--6--|
-----6--6--6--6--4--4--6--|-----6--6--6--6--6--6--6--|--6-------------------|

Chorus
--------------------------|--------------------------|
--------------------------|--------------------------|
-----8--8--8--8--8--8--8--|--8--8--8--8--8--8--8--8--|
-----8--8--8--8--8--8--8--|--8--8--8--8--8--8--8--8--|
-----6--6--6--6--6--6--6--|--6--6--6--6--6--6--6--6--|
--------------------------|--------------------------|



--------------------------|--------------------------|
--------------------------|--------------------------|
--------------------------|--------------------------|
--3--3--3--3--3--3--3--3--|--3--3--3--3--3--3--3--3--|
--3--3--3--3--3--3--3--3--|--3--3--3--3--3--3--3--3--|
--1--1--1--1--1--1--1--1--|--1--1--1--1--1--1--1--1--|




--------------------------|--------------------------|-----------------------|
--------------------------|--------------------------|-----------------------|
--------------------------|--------------------------|-----------------------|
--4--4--4--4--4--4--4--4--|--4--4--4--4--4--4--4--4--|-----------------------|
--4--4--4--4--4--4--4--4--|--4--4--4--4--4--4--4--4--|-----------1------2----|
--2--2--2--2--2--2--2--2--|--2--2--2--2--2--2--2--2--|--4--4--4--------------|



-----------------------|--------------------------|--------------------------|
-----------------------|--------------------------|--------------------------|
-----------------3--8--|-----8--8--8--8--8--8--8--|--8--8--8--8--8--8--8--8--|
---------3----1-----8--|-----8--8--8--8--8--8--8--|--8--8--8--8--8--8--8--8--|
--1-----------------6--|-----6--6--6--6--6--6--6--|--6--6--6--6--6--6--6--6--|
-----------------------|--------------------------|--------------------------|



--------------------------|--------------------------|-------------------------|
--------------------------|--------------------------|-------------------------|
--------------------------|--------------------------|-------------------------|
--3--3--3--3--3--3--3--3--|--3--3--3--3--3--3--3--3--|--4----4--4--4--4--4--4--|
--3--3--3--3--3--3--3--3--|--3--3--3--3--3--3--3--3--|--4----4--4--4--4--4--4--|
--1--1--1--1--1--1--1--1--|--1--1--1--1--1--1--1--1--|--2----2--2--2--2--2--2--|




--------------------------|-----------------------|-----------------------|
--------------------------|-----------------------|-----------------------|
--------------------------|-----------------------|-----------------3-----|
--4--4--4--4--4--4--4--4--|-----------------------|---------3----1-----1--|
--4--4--4--4--4--4--4--4--|-----------1------2----|--1-----------------1--|
--2--2--2--2--2--2--2--2--|--4--4--4--------------|--------------------x--|


Solo (cont.)
-------------------|---------------------|-------------------|
-------------------|---------------------|-------------------|
-------------------|------------------6--|-------------------|
-------------------|------------------6--|-------------------|
-------------------|------------------4--|-------------------|
-------------------|---------------------|-------------------|



-------------------|-------------------|-------------------|
-------------------|-------------------|-------------------|
-------------------|--4----------------|-------------------|
-------------------|--4----------------|-------------------|
-------------------|--2----------------|-------------------|
-------------------|-------------------|-------------------|




---------------------|--------------------|-------------------------|
---------------------|--------------------|-------------------------|
------------------3--|--------------------|--8----8--8--8--8--8--8--|
--6---------------3--|--------------------|--8----8--8--8--8--8--8--|
--6---------------1--|--------------------|--6----6--6--6--6--6--6--|
--4------------------|--------------------|-------------------------|



--------------------------|--------------------------|
--------------------------|--------------------------|
--8--8--8--8--8--8--8--8--|--------------------------|
--8--8--8--8--8--8--8--8--|--3--3--3--3--3--3--3--3--|
--6--6--6--6--6--6--6--6--|--3--3--3--3--3--3--3--3--|
--------------------------|--1--1--1--1--1--1--1--1--|




--------------------------|--------------------------|
--------------------------|--------------------------|
--------------------------|--------------------------|
--3--3--3--3--3--3--3--3--|--4--4--4--4--4--4--4--4--|
--3--3--3--3--3--3--3--3--|--4--4--4--4--4--4--4--4--|
--1--1--1--1--1--1--1--1--|--2--2--2--2--2--2--2--2--|




--------------------------|--------------------------|-------------------------|
--------------------------|--------------------------|-------------------------|
--------------------------|--------------------------|-------------------6--8--|
--4--4--4--4--4--4--4--4--|--6--6--6--6--6--6--6--6--|--8--8--8-------6--6--8--|
--4--4--4--4--4--4--4--4--|--6--6--6--6--6--6--6--6--|--8--8--8-------6--4--6--|
--2--2--2--2--2--2--2--2--|--4--4--4--4--4--4--4--4--|--6--6--6-------4--------|


Bridge
----------------------|-----|-----|-----|-----|-----|-------------------|
----------------------|-----|-----|-----|-----|-----|-------------------|
----------------------|-----|-----|-----|-----|-----|-------------------|
----------------------|-----|-----|-----|-----|-----|--6----------------|
----------------------|-----|-----|-----|-----|-----|--6----------------|
----------------------|-----|-----|-----|-----|-----|--4----------------|


Chorus
-----------------------|--------------------------|--------------------------|
-----------------------|--------------------------|--------------------------|
-----------------6--8--|-----8--8--8--8--8--8--8--|--8--8--8--8--8--8--8--8--|
--8-----------8--6--8--|-----8--8--8--8--8--8--8--|--8--8--8--8--8--8--8--8--|
--8-----------8--4--6--|-----6--6--6--6--6--6--6--|--6--6--6--6--6--6--6--6--|
--6-----------6--------|--------------------------|--------------------------|



--------------------------|--------------------------|
--------------------------|--------------------------|
--------------------------|--------------------------|
--3--3--3--3--3--3--3--3--|--3--3--3--3--3--3--3--3--|
--3--3--3--3--3--3--3--3--|--3--3--3--3--3--3--3--3--|
--1--1--1--1--1--1--1--1--|--1--1--1--1--1--1--1--1--|




--------------------------|--------------------------|-----------------------|
--------------------------|--------------------------|-----------------------|
--------------------------|--------------------------|-----------------------|
--4--4--4--4--4--4--4--4--|--4--4--4--4--4--4--4--4--|-----------------------|
--4--4--4--4--4--4--4--4--|--4--4--4--4--4--4--4--4--|-----------1------2----|
--2--2--2--2--2--2--2--2--|--2--2--2--2--2--2--2--2--|--4--4--4--------------|



-----------------------|--------------------------|--------------------------|
-----------------------|--------------------------|--------------------------|
-----------------3--8--|-----8--8--8--8--8--8--8--|--8--8--8--8--8--8--8--8--|
---------3----1-----8--|-----8--8--8--8--8--8--8--|--8--8--8--8--8--8--8--8--|
--1-----------------6--|-----6--6--6--6--6--6--6--|--6--6--6--6--6--6--6--6--|
-----------------------|--------------------------|--------------------------|



--------------------------|--------------------------|-------------------------|
--------------------------|--------------------------|-------------------------|
--------------------------|--------------------------|-------------------------|
--3--3--3--3--3--3--3--3--|--3--3--3--3--3--3--3--3--|--4----4--4--4--4--4--4--|
--3--3--3--3--3--3--3--3--|--3--3--3--3--3--3--3--3--|--4----4--4--4--4--4--4--|
--1--1--1--1--1--1--1--1--|--1--1--1--1--1--1--1--1--|--2----2--2--2--2--2--2--|




--------------------------|-----------------------|-----------------------|
--------------------------|-----------------------|-----------------------|
--------------------------|-----------------------|-----------------3--8--|
--4--4--4--4--4--4--4--4--|-----------------------|---------3----1-----8--|
--4--4--4--4--4--4--4--4--|-----------1------2----|--1-----------------6--|
--2--2--2--2--2--2--2--2--|--4--4--4--------------|-----------------------|



--------------------------|--------------------------|
--------------------------|--------------------------|
-----8--8--8--8--8--8--8--|--8--8--8--8--8--8--8--8--|
-----8--8--8--8--8--8--8--|--8--8--8--8--8--8--8--8--|
-----6--6--6--6--6--6--6--|--6--6--6--6--6--6--6--6--|
--------------------------|--------------------------|



--------------------------|--------------------------|-------------------------|
--------------------------|--------------------------|-------------------------|
--------------------------|--------------------------|-------------------------|
--3--3--3--3--3--3--3--3--|--3--3--3--3--3--3--3--3--|--4----4--4--4--4--4--4--|
--3--3--3--3--3--3--3--3--|--3--3--3--3--3--3--3--3--|--4----4--4--4--4--4--4--|
--1--1--1--1--1--1--1--1--|--1--1--1--1--1--1--1--1--|--2----2--2--2--2--2--2--|




--------------------------|-----------------------|-----------------------|
--------------------------|-----------------------|-----------------------|
--------------------------|-----------------------|-----------------3--4--|
--4--4--4--4--4--4--4--4--|-----------------------|---------3----1-----4--|
--4--4--4--4--4--4--4--4--|-----------1------2----|--1-----------------2--|
--2--2--2--2--2--2--2--2--|--4--4--4--------------|-----------------------|


Outro Solo
--------------------------|--------------------------|
--------------------------|--------------------------|
-----4--4--4--4--4--4--4--|--4--4--4--4--4--4--3-----|
-----4--4--4--4--4--4--4--|--4--4--4--4--4--4--3--4--|
-----2--2--2--2--2--2--2--|--2--2--2--2--2--2--1--4--|
--------------------------|-----------------------2--|



--------------------------|--------------------------|
--------------------------|--------------------------|
--------------------------|--------------------------|
-----4--4--4--4--4--4--4--|--4--4--4--4--4--4--4--4--|
-----4--4--4--4--4--4--4--|--4--4--4--4--4--4--4--4--|
-----2--2--2--2--2--2--2--|--2--2--2--2--2--2--2--2--|



--------------------------|--------------------------|
--------------------------|--------------------------|
--------------------------|--3--3--3--3--3--3--3--3--|
--6--6--6--6--6--6--6--6--|--3--3--3--3--3--3--3--3--|
--6--6--6--6--6--6--6--6--|--1--1--1--1--1--1--1--1--|
--4--4--4--4--4--4--4--4--|--------------------------|



--------------------------|--------------------------|
--------------------------|--------------------------|
--4--4--4--4--4--4--4--4--|--6--6--6--6--6--6--6--6--|
--4--4--4--4--4--4--4--4--|--6--6--6--6--6--6--6--6--|
--2--2--2--2--2--2--2--2--|--4--4--4--4--4--4--4--4--|
--------------------------|--------------------------|


Intro Riff
--------------------------|--------------------------|
--------------------------|--------------------------|
--8-----8-----6-----6--4--|-----4-----4-----4-----4--|
--8-----8-----6-----6--4--|-----4-----4-----4-----4--|
--6-----6-----4-----4--2--|-----2-----2-----2-----2--|
--------------------------|--------------------------|



--------------------------|--------------------------|
--------------------------|--------------------------|
--4-----4-----6-----6--8--|-----8-----8-----8-----8--|
--4-----4-----6-----6--8--|-----8-----8-----8-----8--|
--2-----2-----4-----4--6--|-----6-----6-----6-----6--|
--------------------------|--------------------------|



--------------------------|--------------------------|
--------------------------|--------------------------|
--8-----8-----6-----6--4--|-----4-----4-----4-----4--|
--8-----8-----6-----6--4--|-----4-----4-----4-----4--|
--6-----6-----4-----4--2--|-----2-----2-----2-----2--|
--------------------------|--------------------------|



--------------------------|--------------------------|
--------------------------|--------------------------|
--4-----4-----6-----6--8--|-----8-----8-----8-----8--|
--4-----4-----6-----6--8--|-----8-----8-----8-----8--|
--2-----2-----4-----4--6--|-----6-----6-----6-----6--|
--------------------------|--------------------------|




--------------------------|--------------------------|
--------------------------|--------------------------|
--6--------6--------6-----|-----6--------6-----------|
--6--------6--------6-----|-----6--------6-----------|
--4--4--4--4--4--4--4--4--|--4--4--4--4--4--4--4--4--|
--------------------------|--------------------------|




--------------------------|--------------------------|------------------------|
--------------------------|--------------------------|------------------------|
--6--------6--------6-----|-----6--------6--6-----8--|-------8----6--8--6--8--|
--6--------6--------6-----|-----6--------6--6-----8--|-------8----6--8--6--8--|
--4--4--4--4--4--4--4--4--|--4--4--4--4--4--4-----6--|------------------------|
--------------------------|--------------------------|------------------------|



-------------------------|-------------------||
-------------------------|-------------------||
-------8----11--11--6----|--8----------------||
-------8----11--11--6----|--8----------------||
-------------------------|--6----------------||
-------------------------|-------------------||

Intro Guitar 1

Spoiler:
Lead 1
E||--9-----11-----9-----11-----|
B||-------------------------7--|
G||----------------------------|
D||----------------------------|
A||----------------------------|
E||----------------------------|



--------------------------|--9-----11-----9-----11-----|
-----9-----------------7--|-------------------------7--|
-----------6-----8--------|----------------------------|
--------------------------|----------------------------|
--------------------------|----------------------------|
--------------------------|----------------------------|




-------------------------|--9-----11-----9-----11-----|
-----7--6-----7--6-------|-------------------------7--|
-----------6--------6----|----------------------------|
-------------------------|----------------------------|
-------------------------|----------------------------|
-------------------------|----------------------------|



--------------------------|--9-----11-----9-----11-----|
-----9-----------------7--|-------------------------7--|
-----------6-----8--------|----------------------------|
--------------------------|----------------------------|
--------------------------|----------------------------|
--------------------------|----------------------------|




----------------------------|
-----7--6-----7--6----------|
-----------6--------6-------|
----------------------------|
----------------------------|
----------------------------|

Intro Guitar 2
Spoiler:
Lead 2
E||--------------------------|
B||--------------------------|
G||--6-----8-----------------|
D||--------------6-----8--4--|
A||--------------------------|
E||--------------------------|




--------------------------|--------------------------|-------------------------|
--------------------------|--------------------------|-------------------------|
--------------------------|--6-----8-----------------|-------------------------|
-----6-----------------4--|--------------6-----8--4--|-----4--3-----4--3-------|
-----------4-----6--------|--------------------------|-----------4--------4----|
--------------------------|--------------------------|-------------------------|



--------------------------|--------------------------|
--------------------------|--------------------------|
--6-----8-----------------|--------------------------|
--------------6-----8--4--|-----6-----------------4--|
--------------------------|-----------4-----6--------|
--------------------------|--------------------------|




--------------------------|-------------------------|
--------------------------|-------------------------|
--6-----8-----------------|-------------------------|
--------------6-----8--4--|-----4--3-----4--3-------|
--------------------------|-----------4--------4----|
--------------------------|-------------------------|

Solo Guitar 1
Spoiler:
Lead 1
E|---------------------|----------------------|
B|--16brb--------------|----------------------|
G|---------------------|------------15--------|
D|---------------------|----------------------|
A|---------------------|----------------------|
E|---------------------|----------------------|



----------------------------|----------------------------|
----------------14----------|------11--------------------|
-----------/13------13\11---|----------11--10------------|
----------------------------|----------------------------|
----------------------------|----------------------------|
----------------------------|----------------------------|



--------------------------|----------------11------|
--------------------------|------------------------|
----------10-11-----------|------------------------|
----------------13--------|------------------------|
--------------------------|------------------------|
--------------------------|------------------------|




----------------------11b~--|--------------------|
----------------------------|--------------------|
----------------------------|--------------------|
----------------------------|--------------------|
----------------------------|--------------------|
----------------------------|--------------------|

Solo Guitar 2
Spoiler:
Lead 2
|--------------------|--------------------|------------------------|
|--------------------|--------------------|------------------------|
|--8brb--------------|--------------------|---------------6--------|
|--------------------|-----------8--------|-----------/6-----6--4--|
|--------------------|--------------------|------------------------|
|--------------------|--------------------|------------------------|



-----------------------|----------------------|-------------------|-----------|
-----------------------|----------------------|-------------------|-----------|
-----3-----------------|----------------------|-------------------|-----------|
--------4--3-----------|---------3-4----------|-------------------|-----------|
-----------------------|-------------6--------|-------------------|-----------|
-----------------------|----------------------|-------------------|-----------|




----------------------------------|--------------------------------------------|
----------------------------------|--------------------------------------------|
----------------10----11-10-13-10-|--13b~--------------------------------------|
----------11-13----13-------------|--------------------------------------------|
-------13-------------------------|--------------------------------------------|
----------------------------------|--------------------------------------------|




----------------------|--------------------|-----------------------|
----------------------|--------------------|-----------------------|
----------------------|--------------------|----13~----------------|
----------------------|--------------------|-----------------------|
----------------------|--------------------|-----------------------|
----------------------|--------------------|-----------------------|




------------------------------------|
------------------------------------|
------------------------------------|
------------11------11--13--11--13--|
----------------13------------------|
------------------------------------|




---------------------------------------------|--------------------|
------------------11------14--11--14--14b----|--------------------|
--11------11--11------13---------------------|--------------------|
------13-------------------------------------|--------------------|
---------------------------------------------|--------------------|
---------------------------------------------|--------------------|



---------------------|
--16b----------------|
---------------------|
---------------------|
---------------------|
---------------------|

Acoustic Bridge
Spoiler:
Bridge Clean Chords
Ebm7 x 2
Bbm / F (root) x 2
Cmaj7 x 2
Ab
Bb
Ebm7 Bbm/F Cmaj7
|----------|----------|-(6)-------|
|--7-------|--6-------|--7--------|
|--6-------|--6-------|--8--------|
|--8-------|--8-------|--8--------|
|--6-------|--8-------|--x--------|
|----------|----------|--7--------|

Ab Bb
|----------|----------|
|--4-------|--6-------|
|--5-------|--7-------|
|--6-------|--8-------|
|--6-------|--8-------|
|--4-------|--6-------|

*Just a note, when playing the Cmaj7, to play then chord for all strings use the thumb to play the low E string on the 7th fret and mute the A string. Then use the remaining four fingers on the other four strings. I love playing the chord in this way

Outro Solo
Spoiler:
Outro Solo

--------------------------|----------------------------|
----------------------14--|----------------------------|
--15----------------------|------15--------------------|
--16------------13--------|--------------13----15--16--|
--------------------------|----------------------------|
--------------------------|----------------------------|



-----------------------------|--------------------------|
-----------------------------|--------------------------|
-----------------------------|----------------------16--|
----------16s--18--18----16--|----------15----16----16--|
-----------------------------|--------------------------|
-----------------------------|--------------------------|



--------------------------|--------------------------|--------------------|
----------------19----19--|------18------------------|--------------------|
--------------------------|------------18------------|--------------------|
--------------------------|------------------16------|--16----------------|
--------------------------|--------------------------|--14----------------|
--------------------------|--------------------------|--------------------|



------------------------|
------------------------|
------------------------|
--15brb~----------------|
------------------------|
------------------------|

Song Structure
Spoiler:

Intro
Verse
Pre-Chorus
Chorus
Intro Riff (in Rhythm Guitar)
Verse
Pre-Chorus
Chorus
Solo
Acoustic Bridge
Chorus
Outro
Intro Riff (So repeat Intro Guitar 1 & 2)

This one is a hard one to learn >.>

Please let me know if you find any mistakes (there are bound to be many)

Happy Jamming!



Last edited by Jibba on Mon Jan 10, 2011 6:53 am; edited 5 times in total


_________________________________________________________________________________________________
Back to top Go down

yuujin_21

Administrator
Administrator
Nice one Jibba!Thank you!


_________________________________________________________________________________________________
"Bokaru HARUNA desu!"
"Gitaa MAMI desu!"
"Beesu TOMOMI desu!"
"Doraamusu RINA desu!"
Back to top Go down

Noodles

Global Moderator
Global Moderator
http://atarashiimusic.com
Wooo testing! I find the letters kind of confusing tho @_@


_________________________________________________________________________________________________
Back to top Go down

Jibba

Mainstream Artist
Mainstream Artist
http://www.youtube.com/user/xJibba?feature=mhee
Lale wrote:Wooo testing! I find the letters kind of confusing tho @_@

Me too, it's just the way guitar pro generates the text >.<

I'll try fix it later maybe.

*Fixed, I think it should be much more readable now*


_________________________________________________________________________________________________
Back to top Go down

Noodles

Global Moderator
Global Moderator
http://atarashiimusic.com
Jibba wrote:
Lale wrote:Wooo testing! I find the letters kind of confusing tho @_@

Me too, it's just the way guitar pro generates the text >.<

I'll try fix it later maybe.

*Fixed, I think it should be much more readable now*

OH sweet! It is much readable now, thank you very much! :>


_________________________________________________________________________________________________
Back to top Go down

chopstickattack

Shiroten Performer
Shiroten Performer
whoa! very cool Amazed

Back to top Go down

ongty

Shiroten Performer
Shiroten Performer
No bassu? ;_;

But thanks Jibba! Very nice tab!

p.s. your avatar is mesmerizing.

Back to top Go down

Jibba

Mainstream Artist
Mainstream Artist
http://www.youtube.com/user/xJibba?feature=mhee
Haha, Ganbatte Yui =D.

I'm not really a bassist, you should be able to get a basic idea of the bass by playing the lowest notes of the Rhythm guitar tab.


_________________________________________________________________________________________________
Back to top Go down

Jibba

Mainstream Artist
Mainstream Artist
http://www.youtube.com/user/xJibba?feature=mhee
Updated with Guitar Cover
/bump


_________________________________________________________________________________________________
Back to top Go down

macdyne73

Mainstream Artist
Mainstream Artist
Nice cover dude

Back to top Go down