Koibito ga Santa Claus Bass Tab
Posted on Sun Jan 23, 2011 9:54 am


muya

Indie Artist
Indie Artist
https://www.youtube.com/channel/UCxS_0_TYNXbjkcOkkZiyy9g
Spoiler:
SCANDAL - Koibito ga Santa Claus

Copy n paste into notepad..

Intro
G|----------------------8-----------------------------------------8------------------|
D<-----6--------------9---9-9----------------6------------------9---9-9--------------|
A|---6---6-6-7-----6-----------------------6---6-6-7---------6------------------2/-9-|
E|4-------------0-------------9--2--2-3-4-------------0--4/7------------9--2---------|


Verse [00:17]
G|-----------------------------------------------------------------------------------------------|
D<----------------------------------------------------------------------------7(5x)-6-6----------|
A|----------------------------6--6-6----------6--6-6----------4(6x)-4/7-7(8x)-----------9\--7/9\-|
E|0(16x)-2(16x)-0(16x)-2(16x)---------4--4-4----------4--4-4-------------------------------------|

G|------------------------------------------------------------------------------------------------------|
D<------------------------------------------------------------------------------------------------------|
A|------------------------------4-6--6-6----------6--6-6---------4(6x)-----------6-6--6\-----6----6/11\-|
E|0(16x)-2(16x)-0(16x)-2(14x)-6-----------4--4-4----------4--4-4-------7-7-5(8x)---------4-7------------|


Chorus [01:10]
G|----------------------------------------------------------|
D<----------------------------------------------------------|
A|--------------6(8x)-4(8x)--------------4-5-6--6-6-4-4-6-6-|
E|0--0--0(12x)--------------7(16x)-6(5x)--------------------|

G|----------------------------------------------------------------|
D<----------------------------------------------------------4---6-|
A|--------------7-7---7-6(8x)-4(8x)-------4(4x)-6\--------6---6---|
E|0--0--0(7x)-7-----7---------------7(8x)-----------2--4----------|

Bridge [01:37]
G|-----------------------------------------------------------------------------------------|
D<-----------------------------------------------------------------------------------------|
A|------2/7\--------2/7\--------4/9-9\--------4/9-9\--------2/7\--------2/7\--------4/9-9\-|
E|0-0-0-------0-0-0-------2-2-2---------2-2-2---------0-0-0-------0-0-0-------2-2-2--------|

G|-------------------------------------------------------------13-12----13-12-----|
D<----------------------------6\----------------------6-8-8/13-------13-------13\-|
A|--------4-6/----11\----6----------4---------6-6--6------------------------------|
E|2--2--6--------------------------------5----------------------------------------|


Solo [02:04]
G|--------------------------------------------------------------------|
D<-------------------------------------------------4-6--4---6-4-------|
A|-------6(16x)-4(6x)--------------------------6-6--------6-----6-4-6-|
E|0(16x)--------------4-2--2-2-4-4-5-5-4---7-7------------------------|

G|-------------------------------------------------------------------------|
D<-------------------------------------------------------------------------|
A|7(7x)---7---9-7--7-4-5-6(8x)-5(4x)-----4-4-4(14x)-5-5-6(5x)-----6--6(4x)-|
E|------7---7------------------------7-7----------------------4/7----------|

[02:30]
G|---------------------------------------------------------------------------|
D<---------------------------------------------------------------------------|
A|--4-5-6--6-6----------6--6-6----------4(6x)-7-7-------6-6--6\------6--4--6-|
E|6-------------4--4-4----------4--4-4------------5(8x)----------4-7---------|

[02:43]
G|---------------------------------------13-12\-------------|
D<----------------------------------1/13--------------------|
A|---------6----4--4\2-2(16x)-1-1-1--------------6---6/11\--|
E|0---------------------------------------------------------|

Chorus [02:56]
G|---------------------------------------------------------------------|
D<---------------------------------------------------------------------|
A|---------2/-7(5x)---9-7-6(8x)-4(8x)-------4(4x)-6(4x)-------------2/-|
E|0--0--0-----------7-----------------7(8x)-------------4--3--2--1-----|

G|--------------------------------------------------------------------------------|
D<--------------------------------------------------------------------------------|
A|-------------6(8x)-4(8x)--------------4-5-6--6-6-4-4-6-6-7(7x)---7---9-7--7-4-5-|
E|0--0--0(12x)-------------7(16x)-6(5x)--------------------------7---7------------|

G|-----------------------------------------------------------------------------|
D<------------------------------6---6-5--5---5--4-6-4-3--3-3\------------------|
A|6(8x)-4(8x)-------4(4x)-6(4x)---6--------6-----------------------------2/11\-|
E|------------7(8x)-------------------------------------------0-0-0-0-2--------|


Outro [03:40]
G|----------------------------8--------------------------------------------8-----------------------|
D<-----6--------------------9---9-9----------------6---------------------9---9-9-------------------|
A|---6---6-6-7--2/7--9\--6-----------------------6---6-6-7--2/7--/9\--6------------------2/-9------|
E|4---------------------------------9--2--2-3-4----------------------------------9--2------------7-|

Tabbed by Muya R..
Ya~ha~..!!
gp: http://www.mediafire.com/?po78xge2l82qb67..
Not really sure.. hope help you guys..



Last edited by muya on Tue Jan 01, 2013 2:55 am; edited 3 times in total (Reason for editing : add link..)

Back to top Go down

Re: Koibito ga Santa Claus Bass Tab
Posted on Sun Jan 23, 2011 6:26 pm


bemnage

Mainstream Artist
Mainstream Artist
http://www.youtube.com/user/bemnage?feature=mhum
Thanks Muya! Shall try it when i have the time :D


_________________________________________________________________________________________________


credits to lale [=3

Youtube Channel

TOMO in AFAX
TOMO: We went to the night safari. Hippopotamus.... you know? very very very......... smelly. I die.
LOL
Back to top Go down

Re: Koibito ga Santa Claus Bass Tab
Posted on Mon Jan 24, 2011 1:19 am


MadOrange

Shiroten Performer
Shiroten Performer
amazing!! Thanks! Clap


_________________________________________________________________________________________________

                                                                                                                                            otakumi
Back to top Go down

Re: Koibito ga Santa Claus Bass Tab
Posted on Wed Sep 14, 2011 8:05 am


Neyodemos

Shiroten Performer
Shiroten Performer
http://www.youtube.com/user/Neyodemos
Thanks for the tabs, a song so jolly I have to learn it. Its really awesome. Smile
Do you have your cover of this song? I'd like to see.

Back to top Go down

Re: Koibito ga Santa Claus Bass Tab
Posted on Sun Sep 18, 2011 7:27 am


muya

Indie Artist
Indie Artist
https://www.youtube.com/channel/UCxS_0_TYNXbjkcOkkZiyy9g
Well, i am bad when covering n always forget some parts..
So, i made a gp for it..
http://www.mediafire.com/?j9a9mvab9e8etd5..

Back to top Go down