Haruka Bass tab [Page 1 of 1]

Haruka Bass tab
Posted on Sat Mar 19, 2011 9:10 pm


mikan

Mainstream Artist
Mainstream Artist
http://mikanhannille.com/
You thanked this post! -
Thanks received by this post:

Message reputation : 100% (2 votes)

Haruka - SCANDAL Bass tab

Copy and paste to notepad for better view.


Intro:

|-----------------------------------------|
|--------------------------------12/14~\--|
|-----------------------12-10-12----------|
|--8/13-13-10-13-13/15~-------------------|

|---------------------------|
|---------------------------|
|---------------------------|
|--1(x8)-3(x8)-0(x8)-5(x8)--|

|----------------------------------------------|
|------------------------10--10----------------|
|-----------------------------------15-15------|
|--1(x8)-3(x8)-5(x8)-5/8---8---8/14-------15\--|


Verse I:

|----------------------------------------------|
|----------------------------------------------|
|--------------7(x4)-------5(x4)-10(x4)--------|
|--1(x4)-3(x4)-------5(x4)--------------8(x8)--|

|-------------------------------------------------------------------|
|-------------------------------------------------------------------|
|--------------------------5(x6)---5-5/7-7(x6)--7-8-8-10--------15--|
|--1(x8)-3(x8)-0(x8)-5(x8)-------5------------8----------8-8/14-----|


Pre-chorus:

|----------------------------------------------------------------------------|
|------3-3/6-5---------------------------------------------------------------|
|----3-----------7/9---9--9-8-----7------------5(x8)-----------10-10-10--10--|
|--4-----------------8--------5/7----8-7-5-5-5-------3(x7)-3/9---------------|


Chorus:

|----------------------------------------------|
|-------------------5-7-7-7--------------------|
|----------------7----------5(x4)-------3(x4)--|
|--1-0-1-3(x4)-0------------------3(x4)--------|

|------------------------------------------------------------|
|--------------------------------------------7---9---10---9--|
|------------------------5/7-7-5(x4)-------------------------|
|--1-0-1-3-3-3-5-5-5-0-0-------------3(x4)-5---7---8----7----|

|-------------------------------------------------------------------|
|--------------------9-8-7-----------------------10---10---10---10--|
|----------------5/7--------------5(x4)-10(x4)----------------------|
|--1-0-1-3-3-10\------------5-5-5--------------8----8----8----8-----|

|-------------------------------|
|-------------------------------|
|----------------5(x4)----------|
|--1-1-1-4-4-5-6-------3(x4)-5--|


Intro:

|---------------------------|
|---------------------------|
|---------------------------|
|--1(x8)-3(x8)-0(x8)-5(x8)--|

|----------------------------------------------|
|------------------------10--10----------------|
|-----------------------------------15-15------|
|--1(x8)-3(x8)-5(x8)-5/8---8---8/14-------15\--|


Verse II:

|-------------------------------------------------------------------|
|-------------------------------------------------------------------|
|--8-8-8--10-10-10-10/--------12-12-12--5---5--10-10-10-------------|
|----------------------0-0-0--------------5--------------3/8-8-8-8--|


Verse III:

|-------------------------------------------------------------------------|
|-------------------------------------------------------------------------|
|--------------------------5(x6)---5-5/7-7(x6)--7-8-8-10-12---------------|
|--1(x8)-3(x8)-0(x8)-5(x8)-------5------------8--------------6/8-8-8\--3--|


Chorus:

|----------------------------------------------|
|-------------------5-7-7-7--------------------|
|----------------7----------5(x4)-------3(x4)--|
|--1-0-1-3(x4)-0------------------3(x4)--------|

|------------------------------------------------------------|
|--------------------------------------------7---9---10---9--|
|------------------------5/7-7-5(x4)-------------------------|
|--1-0-1-3-3-3-5-5-5-0-0-------------3(x4)-5---7---8----7----|

|-------------------------------------------------------------------|
|--------------------9-8-7-----------------------10---10---10---10--|
|----------------5/7--------------5(x4)-10(x4)----------------------|
|--1-0-1-3-3-10\------------5-5-5--------------8----8----8----8-----|

|--------------------------------------------------------------------------------------------------|
|-------------------------------------------------------------------------------------10-10-10-----|
|----------------5(x4)-----------------------------------------------------------------------------|
|--1-1-1-4-4-5-6-------3(x4)-[Guitar Solo starts here]-6(x16)-5(x16)-4(x16)-3(x7)-3/8----------8\--|


Bridge:

|---------------------------------------------------------------------|
|---------------------------------------------------------------------|
|----------10-9---------5/7---------5(x8)-----------10--10-10-10--10--|
|--4-4-3/9------9/1-1-1-----0-0-5-5-------3(x7)-3/9-------------------|


Chorus:

|----------------------------------------------|
|-------------------5-7-7-7--------------------|
|----------------7----------5(x4)-------3(x4)--|
|--1-0-1-3(x4)-0------------------3(x4)--------|

|------------------------------------------------------------|
|--------------------------------------------7---9---10---9--|
|------------------------5/7-7-5(x4)-------------------------|
|--1-0-1-3-3-3-5-5-5-0-0-------------3(x4)-5---7---8----7----|

|-------------------------------------------------------------------|
|--------------------9-8-7-----------------------10---10---10---10--|
|----------------5/7--------------5(x4)-10(x4)----------------------|
|--1-0-1-3-3-10\------------5-5-5--------------8----8----8----8-----|

|------------------------------------|
|------------------------------------|
|----------------5(x4)---------------|
|--1-1-1-4-4-5-6-------3(x4)-5--5-5--|


Outro:

|---------------------------------|
|---------------------------------|
|---------------------------------|
|--12\1--1(x8)-3(x8)-0(x8)-5(x8)--|

|----------------------------------------------|
|------------------------10--10----------------|
|-----------------------------------15-15------|
|--1(x8)-3(x8)-5(x8)-5/8---8---8/14-------15\--|

|---------------------------|
|---------------------------|
|---------------------------|
|--1(x8)-3(x8)-0(x8)-5(x8)--|

|-------------------------------------------------|
|------------------------10--10-------------------|
|-----------------------------------15-15---------|
|--1(x8)-3(x8)-5(x8)-5/8---8---8/14-------15\1-1~-|


tabbed by: mikan

Please notify me if there are some mistakes. Thanks!



Last edited by mikan on Sun Mar 20, 2011 2:32 pm; edited 1 time in total


_________________________________________________________________________________________________
Back to top Go down

Re: Haruka Bass tab
Posted on Sun Mar 20, 2011 6:24 am


bemnage

Mainstream Artist
Mainstream Artist
http://www.youtube.com/user/bemnage?feature=mhum
Thanks mikan! [=3
Gonna try this song out nau!


_________________________________________________________________________________________________


credits to lale [=3

Youtube Channel

TOMO in AFAX
TOMO: We went to the night safari. Hippopotamus.... you know? very very very......... smelly. I die.
LOL
Back to top Go down

Re: Haruka Bass tab
Posted on Sun Mar 20, 2011 2:35 pm


mikan

Mainstream Artist
Mainstream Artist
http://mikanhannille.com/
Made a stupid mistake(putting down an extra bar on the 2nd intro). All fixed now. I just removed it. :3


_________________________________________________________________________________________________
Back to top Go down

Re: Haruka Bass tab
Posted on Tue May 07, 2013 2:52 am


maztiga

Caless Student
Caless Student
thanks Mikan
this is great


by the way, have a guitar pro this tab? i was searching in internet but i can't find this tab.

arigatou gozaimasu Mikan San

Please

Back to top Go down