GIRLism chords and tabs (+gtp)
Posted on Tue Mar 22, 2011 2:43 pm


Nikki

Indie Artist
Indie Artist
Well, I guess this song is their easiest song to play. XD
But it is the first time, I've ever learned the chords/tabs by ear and I'm unsure about some parts of it (particularly about the part in chorus with "F G#", it sounds a bit strange, maybe, but I didn't manage to find more appropriate sound for this part), so I'll be glad if you suggest or correct something.

Here we go. All chords are power-chords.


Intro:

|-------------------------------------------------------|
|-------------------------------------------------------|
|-------------------------------------------------------|
|----3-3-3-1-1-1-3----3---------------------------| (x4)
|--------------------3----3---------------------------|
|--------------------1----1---------------------------|

Verse:

|-------------------------------------------------------|
|-------------------------------------------------------|
|-------------------------------------------------------|
|----3-3-3-1-1-1-3----3---------------------------| (x6)
|--------------------3----3---------------------------|
|--------------------1----1---------------------------|


|-------------------------------------------------------|
|-------------------------------------------------------|
|-------------------------------------------------------|
|----3-3-3-1-1-1-3-3-3-1-1-1-------------------|
|-------------------------------------------------------|
|-------------------------------------------------------|

---
---
---
-3- (x12)
-3-
-1-

chorus:

C# D# F G#
C# D# A# G# (lick instead A# here)

lick:

------------------------------
------------------------------
-------7b8b7---------------
-8---------------8*-8--------
-8---------------8*-8--------
-6---------------6*-6--------

repeat intro
repeat verse
repeat chorus (x2)

bridge:
|-------------------------------------------------------|
|-------------------------------------------------------|
|-------------------------------------------------------|
|----3-3-3-1-1-1-3----3---------------------------| (x10)
|--------------------3----3---------------------------|
|--------------------1----1---------------------------|

|------------------------|
|------------------------|
|------------------------|
|----3-3-3-1-1-1----| (x4)
|------------------------|
|------------------------|

repeat verse

repeat chorus without lick
repeat chorus

outro:

|-------------------------------------------------------|
|-------------------------------------------------------|
|-------------------------------------------------------|
|----3-3-3-1-1-1-3----3---------------------------| (x3)
|--------------------3----3---------------------------|
|--------------------1----1---------------------------|

|-------------------------------------------------------|
|-------------------------------------------------------|
|-------------------------------------------------------|
|----3-3-3-1-1-1-3-------------------------------|
|--------------------3-------------------------------|
|--------------------1-------------------------------|

repeat outro



Here's a gtp-version:
http://www.mediafire.com/?596mbnc21m9zyun

Back to top Go down

Re: GIRLism chords and tabs (+gtp)
Posted on Wed Mar 23, 2011 5:07 am


Jibba

Mainstream Artist
Mainstream Artist
http://www.youtube.com/user/xJibba?feature=mhee
Good Job! Tab is perfect Nice One


_________________________________________________________________________________________________
Back to top Go down

Re: GIRLism chords and tabs (+gtp)
Posted on Wed Mar 23, 2011 3:05 pm


Nikki

Indie Artist
Indie Artist
Thanx! I'm glad Clap

Back to top Go down

Re: GIRLism chords and tabs (+gtp)
Posted on Sun Feb 05, 2012 2:57 am


Naomi

Indie Artist
Indie Artist
http://www.fanfiction.net/~naomi208
wats lick(beginner here)?


_________________________________________________________________________________________________



Back to top Go down

Re: GIRLism chords and tabs (+gtp)
Posted on Fri Feb 10, 2012 11:09 am


souichiro-san

Caless Student
Caless Student
Wow,thanks you

Back to top Go down

Re: GIRLism chords and tabs (+gtp)
Posted on Sat Jul 21, 2012 3:29 am


Andika

SPAMMER
SPAMMER
thanks, Clap

Back to top Go down

Re: GIRLism chords and tabs (+gtp)
Posted on Sat Mar 30, 2013 1:16 pm


xcutioner

Caless Student
Caless Student
re-upload that link please (dead link)

Back to top Go down

Re: GIRLism chords and tabs (+gtp)
Posted on Sat Apr 06, 2013 11:52 am


woeaih4

International Performer
International Performer
nice! can't stop playing this

Back to top Go down

Re: GIRLism chords and tabs (+gtp)
Posted on Sun Apr 07, 2013 5:34 am


boobooli

Caless Student
Caless Student
cannot download

Back to top Go down

Re: GIRLism chords and tabs (+gtp)
Posted on Thu Mar 20, 2014 5:33 am


MamiSoul

Shiroten Performer
Shiroten Performer
Very easy and simple to play! Thank you!   Ho Onion

Back to top Go down

Re: GIRLism chords and tabs (+gtp)
Posted on Thu Mar 20, 2014 6:48 am


boobooli

Caless Student
Caless Student
The key you provided for file access was invalid. This is usually caused because the file is no longer stored on MediaFire. This occurs when the file is removed by the originating user or MediaFire.
Still have questions, or think we've made a mistake? Please contact support for further assistance.

anyone can share???
thank

Back to top Go down