Hoshi no Furo Yoru ni Chords and Tab
Posted on Thu Apr 28, 2011 5:09 pm


ren-00

Caless Student
Caless Student

Code:


-----------------------------------------------------------------
Hoshi no Furu Yoru ni - Scandal
-----------------------------------------------------------------
Tabbed by: ren-00
Tuning: Standard


D5  - x57xxx
E5  - x79xxx
G5  - x1012xxxx
F#5 - 911xxxx
F5  - 810xxxx
E7  - 0799910
Em  - 079987


E7  - 022130
F5  - 13xxxx
F#5 - 24xxxx
G5  - 35xxxx



CHORDS

Intro

E5-D5-E5-D5 E5-D5-E5-D5-D#5

E5-D5-E5-D5 E5-D5-G5-F#5-F5


E5-D5-E5-D5-D#5 (3X) E5-D5-E5-G5

E5-D5-E5-D5-D#5 (3X) E5-D5-E5-D5



E5-D5-E5-D5-D#5 (3X)          E5-D5-G5-F#5-F5

Mou suki na youni sureba ii nante itta

E5-D5-E5-D5-D#5 (3X)        E5-D5-E5-G5

Anata no koto wo hamabe ni nagete suteta


G5    F#5      F5        [E5-D5-E5-D5 (2X)]
Aa tarinakatta TSURIRU ga



G5      F#5      F5
afurete shimatta mitai


E5-D5-E5-D5 (2X)


E          E7 
Nige ashihayai neko mitai na hito datta

E          E7                            G5
anata no koto wo tamesu no wa gokai medatta



E5-D5-E5-D5 E5-D5-E5-D5-D#5
Denwa wa soba ni

E5-D5-E5-D5 E5-D5-E5-G5-F#5-F5
oitamama mushi shiteta

E5-D5-E5-D5 (3X)                E5-D5-E5
konya wa chotto ai no SHINARIO kaita

G5    F#5      F5  E5-D5-E5-D5 (2X)
Aa Jinsei ga BARAETI

G5    F#5      B5
nee kitai toori desho


A5  B5  E      F#5        A5      B5        C#m
Atashi kyou mo mitsuketa saikou! zecchou! RO MA N SU!

A5    B5  E5    F#5        A5        B5    E
motto amasugiru PETEN ni sasowarete BA I BAI

C5-B5  C5-B5  C5-B5    C5        D5
AH    AH    AH      hoshi no furu


E5-D5-E5-D5-D#5 (3X) E5-D5-E5-G5
yoru ni


Em 
Himitsu no ATO wa kosuttemo kienakatta
attakai umi de oboreru sakana ni natta



G5    F#5      F5  [E5-D5-E5-D5(2X)]
Aa jinsei ha MISUTERI

G5    F#5      B5
sou kitai hazurenano


SOLO:

E5-D5-E5-D5-D#5 (3X) E5


E5-D5-E5-D5-D#5 (3X) E5-D5-E5-G5-F#5-F5


E5-D5-E5-D5-D#5 (3X) G5




A5  B5  E5        F#5      A5      B5      C#m   
Atashi kyou mo mitsuketa saiko! zecchou! RO MA N SU!

A5    B5  E5      F#5      A5      B5    E5    F#5
motto ama sugiru kuraino SURIRU wo motometeiru no

A5      B5    C#m    E5      A5    B5      C#m
Yubi no sukima kara koboreru suna tsubu mitai ni

A5        B5 C#m        E5            A5        B5      E5
wasurete ikunda zutto kidzu(ke) kanai PURI shinakara


C5-B5  C5-B5  C5-B5    C5        D5
AH    AH    AH    hoshi no furu


E5-D5-E5-D5-D#5 (3X) E5-D5-G5-F#5-F5
yoru ni


OUTRO:

E5-D5-E5-D5-D#5 (3X) E5  E7





TAB:

INTRO



E|---------------------------|-----------------------|
B|---------------------------|-----------------------|
G|---------------------------|-----------------------|
D|---9-x-x-7-x-9-9-x-7-x-x---|--9-x-x-7-x-9-9-x-7-8--|
A|---7-x-x-5-x-7-7-x-5-x-x---|--7-x-x-5-x-7-7-x-5-6--|
E|---------------------------|-----------------------|


E|---------------------------|---------------------------|
B|---------------------------|---------------------------|
G|---------------------------|---------------------------|
D|---9-x-x-7-x-9-9-x-7-x-x---|--9-x-x-7-x-12-12-x-11-10--|
A|---7-x-x-5-x-7-7-x-5-x-x---|--7-x-x-5-x-10-10-x--9--8--|
E|---------------------------|---------------------------|



E|---------------------------|-----------------------|
B|---------------------------|-----------------------|
G|---------------------------|-----------------------|
D|---9-x-x-7-x-9-9-x-7-8-----|--9-x-x-7-x-9-9-x-7-8--|
A|---7-x-x-5-x-7-7-x-5-6-----|--7-x-x-5-x-7-7-x-5-6--|
E|---------------------------|-----------------------|
 |
 |
 |
E|------------------------------|-----------------------------|
B|-10b12-10b12-10b12-10b12-10-8-|10b12-10-8-10b12-10-8--------|
G|------------------------------|----------------------7-8-9--|
D|------------------------------|-----------------------------|
A|------------------------------|-----------------------------|
E|------------------------------|-----------------------------|


E|---------------------------|-----------------------|
B|---------------------------|-----------------------|
G|---------------------------|-----------------------|
D|---9-x-x-7-x-9-9-x-7-8-----|--9-x-x-7-x-9-x--------|
A|---7-x-x-5-x-7-7-x-5-6-----|--7-x-x-5-x-7-x--------|
E|---------------------------|-----------------3b5---|
 |
 |
 |
E|---------------------------------|------------10-------------|
B|---10b12-10b12-10b12-10b12-10-8--|10b12-10-8-----10b12-8b10--|
G|---------------------------------|---------------------------|
D|---------------------------------|---------------------------|
A|---------------------------------|---------------------------|
E|---------------------------------|---------------------------|



E|---------------------------|-----------------------|
B|---------------------------|-----------------------|
G|---------------------------|-----------------------|
D|---9-x-x-7-x-9-9-x-7-8-----|--9-x-x-7-x-9-9-x-7-8--|
A|---7-x-x-5-x-7-7-x-5-6-----|--7-x-x-5-x-7-7-x-5-6--|
E|---------------------------|-----------------------|
 |
 |
 |
E|------------------------------|-----------------------------|
B|-10b12-10b12-10b12-10b12-10-8-|10b12-10-8-10b12-10-8--------|
G|------------------------------|----------------------7-8-9--|
D|------------------------------|-----------------------------|
A|------------------------------|-----------------------------|
E|------------------------------|-----------------------------|


E|---------------------------|-----------------------|
B|---------------------------|-----------------------|
G|---------------------------|-----------------------|
D|---9-x-x-7-x-9-9-x-7-8-----|--9-x-x-7-x-9-9-x-7----|
A|---7-x-x-5-x-7-7-x-5-6-----|--7-x-x-5-x-7-7-x-5----|
E|---------------------------|-----------------------|
 |
 |
 |
E|------------------------------|--------------------|
B|-10b12-10b12-10b12-10b12-10-8-|10b12-10-8----------|
G|------------------------------|-----------9--------|
D|------------------------------|--------------------|
A|------------------------------|--------------------|
E|------------------------------|--------------------|




STANZA:


    Mou          suki na    youni        sureba

E|-------------------------|-----------------------|
B|-------------------------|-----------------------|
G|-------------------------|-----------------------|
D|---9-x-x-7-x-9-9-x-7-8---|--9-x-x-7-x-9-9-x-7-8--|
A|---7-x-x-5-x-7-7-x-5-6---|--7-x-x-5-x-7-7-x-5-6--|
E|-------------------------|-----------------------|


    ii          nante        itta

E|-------------------------|---------------------------|
B|-------------------------|---------------------------|
G|-------------------------|---------------------------|
D|---9-x-x-7-x-9-9-x-7-8---|--9-x-x-7-x-12-12-x-11-10--|
A|---7-x-x-5-x-7-7-x-5-6---|--7-x-x-5-x-10-10-x--9--8--|
E|-------------------------|---------------------------|


    Anata no                  koto wo


E|---------------------------|-----------------------|
B|---------------------------|-----------------------|
G|---------------------------|-----------------------|
D|---9-x-x-7-x-9-9-x-7-8-----|--9-x-x-7-x-9-9-x-7-8--|
A|---7-x-x-5-x-7-7-x-5-6-----|--7-x-x-5-x-7-7-x-5-6--|
E|---------------------------|-----------------------|
 
      hamabe ni  nagete suteta

E|---------------------------|-----------------------|
B|---------------------------|-----------------------|
G|---------------------------|-----------------------|
D|---9-x-x-7-x-9-9-x-7-8-----|--9-x-x-7-x-9-x--------|
A|---7-x-x-5-x-7-7-x-5-6-----|--7-x-x-5-x-7-x--------|
E|---------------------------|-----------------3b5---|
 





    Aa  tarinakatta    TSURIRU ga
 

E|--------------------------------|
B|--------------------------------|
G|--------------------------------|
D|--------------------------------|
A|--5-----------4--------3--------|
E|--3-----------2--------1--------|
 |                                |
 |                                |
 |                                |
E|--------------14-------13-------|
B|--12----------11-------10-------|
G|--12----------11-------10-------|
D|--12----------11-------10-------|
A|--------------------------------|
E|--------------------------------|


E|---------------------------|------------------------|
B|---------------------------|------------------------|
G|---------------------------|------------------------|
D|---9-x-x-7-x-9-9-x-7-x-x---|--9-x-x-7-x-9-9-x-7-x-x-|
A|---7-x-x-5-x-7-7-x-5-x-x---|--7-x-x-5-x-7-7-x-5-x-x-|
E|---------------------------|------------------------|


  afurete    shimatta mitai

E|--------------------------------|
B|--------------------------------|
G|--------------------------------|
D|--5-----------4--------3--------|
A|--5-----------4--------3--------|
E|--3-----------2--------1--------|
 |                                |
 |                                |
 |                                |
E|--------------14-------13-------|
B|--12----------11-------10-------|
G|--12----------11-------10-------|
D|--12----------11-------10-------|
A|--------------------------------|
E|--------------------------------|


E|---------------------------|-----------------------|
B|---------------------------|-----------------------|
G|---------------------------|-----------------------|
D|---9-x-x-7-x-9-9-x-7-------|--9-x-x-7-x-9-9-x-7----|
A|---7-x-x-5-x-7-7-x-5-------|--7-x-x-5-x-7-7-x-5----|
E|---------------------------|-----------------------|
 |
 |
 |
E|------------------------------|-----------------------------|
B|-10b12-10b12-10b12-10b12-10-8-|10b12-10-8-10b12-10-8--------|
G|------------------------------|----------------------7-8-9--|
D|------------------------------|-----------------------------|
A|------------------------------|-----------------------------|
E|------------------------------|-----------------------------|


E|---------------------------|-----------------------|
B|---------------------------|-----------------------|
G|---------------------------|-----------------------|
D|---9-x-x-7-x-9-9-x-7-------|--9-x-x-7-x-9-9-x-7----|
A|---7-x-x-5-x-7-7-x-5-------|--7-x-x-5-x-7-7-x-5----|
E|---------------------------|-----------------------|
 |
 |
 |
E|------------------------------|--------------------|
B|-10b12-10b12-10b12-10b12-10-8-|10b12-10-8----------|
G|------------------------------|--------------------|
D|------------------------------|--------------------|
A|------------------------------|--------------------|
E|------------------------------|--------------------|


 

  Nige    ashihayai    neko mitai na hito datta

 (w/ tremolo bar)

E|--12----------10------|-----------------------------|
B|--9------------9------|-----------------------------|
G|--9------------9------|-----------------------------|
D|----------------------|-----------------------------|
A|----------------------|-----------------------------|
E|----------------------|-----------------------------|




    anata no koto wo    tamesu no wa gokai medatta

 (w/ tremolo bar)

E|--12----------10------|---------------------------------------|
B|--9------------9------|---------------------------------------|
G|--9------------9------|---------------------------------------|
D|----------------------|--------------------x-x-x-x-x-x-x------|
A|----------------------|--------------------x-x-x-x-x-x-x------|
E|----------------------|--------------------x-x-x-x-x-x-x-3b5--|



    Denwa wa              soba ni

E|---------------------------|-------------------------|
B|---------------------------|-------------------------|
G|---------------------------|-------------------------|
D|---9-x-x-7-x-9-9-x-7-x-x---|--9-x-x-7-x-9-9-x-7-8----|
A|---7-x-x-5-x-7-7-x-5-x-x---|--7-x-x-5-x-7-7-x-5-6----|
E|---------------------------|-------------------------|

 
    oitamama    mushi    shiteta

E|---------------------------|--------------------------|
B|---------------------------|--------------------------|
G|---------------------------|--------------------------|
D|---9-x-x-7-x-9-9-x-7-x-x---|--9-x-x-7-x-9-x-12-11-10--|
A|---7-x-x-5-x-7-7-x-5-x-x---|--7-x-x-5-x-7-x-10--9--8--|
E|---------------------------|--------------------------|


  konya wa                  chotto

E|---------------------------|-------------------------|
B|---------------------------|-------------------------|
G|---------------------------|-------------------------|
D|---9-x-x-7-x-9-9-x-7-x-x---|--9-x-x-7-x-9-9-x-7-x-x--|
A|---7-x-x-5-x-7-7-x-5-x-x---|--7-x-x-5-x-7-7-x-5-x-x--|
E|---------------------------|-------------------------|

 
    ai no  SHINARIO          kaita

E|---------------------------|-------------------------|
B|---------------------------|-------------------------|
G|---------------------------|-------------------------|
D|---9-x-x-7-x-9-9-x-7-x-x---|--9-x-x-7-x-9--x-x--x-x--|
A|---7-x-x-5-x-7-7-x-5-x-x---|--7-x-x-5-x-7--x-x--x-x--|
E|---------------------------|-------------------------|



  Aa    Jinsei ga BARAETI


E|--------------------------------|
B|--------------------------------|
G|--------------------------------|
D|--------------------------------|
A|--5-----------4--------3--------|
E|--3-----------2--------1--------|
 |                                |
 |                                |
 |                                |
E|--------------14-------13-------|
B|--12----------11-------10-------|
G|--12----------11-------10-------|
D|--12----------11-------10-------|
A|--------------------------------|
E|--------------------------------|


E|---------------------------|------------------------|
B|---------------------------|------------------------|
G|---------------------------|------------------------|
D|---9-x-x-7-x-9-9-x-7-x-x---|--9-x-x-7-x-9-9-x-7-x-x-|
A|---7-x-x-5-x-7-7-x-5-x-x---|--7-x-x-5-x-7-7-x-5-x-x-|
E|---------------------------|------------------------|


  nee kitai toori      desho

E|--------------------|--------------|
B|--------------------|--------------|
G|--------------------|-4------------|
D|--5-----------4-----|-4------------|
A|--5-----------4-----|-2------------|
E|--3-----------2-----|--------------|
 |                                  |
 |                                  |
 |                                  |
E|--------------14----|--------------|
B|--12----------11----|--------------|
G|--12----------11----|--------------|
D|--12----------11----|--------------|
A|--------------------|--------------|
E|--------------------|--------------|




SOLO:



E|-------------------------------------------------|
B|--12-----12-----12-----12-----12-----12----------|
G|--14b16--14b16--14b16--14b16--14b16--14b16--12---|
D|-------------------------------------------------|
A|-------------------------------------------------|
E|-------------------------------------------------|

E|--12-----12-----12-----12-----12-----12-----12-----12-----|
B|--15b17--15b17--15b17--15b17--15b17--15b17--15b17--15b17--|
G|----------------------------------------------------------|
D|----------------------------------------------------------|
A|----------------------------------------------------------|
E|----------------------------------------------------------|


E|-------------------------------------------------|
B|--12-----12-----12-----12-----12-----12----------|
G|--14b16--14b16--14b16--14b16--14b16--14b16--12---|
D|-------------------------------------------------|
A|-------------------------------------------------|
E|-------------------------------------------------|

E|--12-----12-----12-----12-----15-----------------|
B|--15b17--15b17--15b17--15b17--18b20--------------|
G|-------------------------------------------------|
D|-------------------------------------------------|
A|-------------------------------------------------|
E|-------------------------------------------------|


    tr^^^^^^^^^^^^^^^^^^    Harm.                  slide

E|------------------------|-------------------------------------|
B|------------------------|-------------------------------------|
G|----0(2)0---------------|--(9)-(9)-(9)-(9)--------------------|
D|------------------------|------------------(9)----------------|
A|------------------------|----------------------(7)--x/-\x-----|
E|------------------------|---------------------------x/-\x-----|


                                                pick scrape

E|-----12----12---------14-----14------14/16--16-----x----------|
B|--------------------------------------------------x-----------|
G|-/11----11-------11/12----12------12-------------x------------|
D|------------------------------------------------x-------------|
A|-----------------------------------------------x--------------|
E|----------------------------------------------x---------------|



OUTRO:


E|---------------------------|-----------------------|
B|---------------------------|-----------------------|
G|---------------------------|-----------------------|
D|---9-x-x-7-x-9-9-x-7-8-----|--9-x-x-7-x-9-9-x-7-8--|
A|---7-x-x-5-x-7-7-x-5-6-----|--7-x-x-5-x-7-7-x-5-6--|
E|---------------------------|-----------------------|
 |
 |
 |
E|------------------------------|-----------------------------|
B|-10b12-10b12-10b12-10b12-10-8-|10b12-10-8-10b12-10-8--------|
G|------------------------------|----------------------7-8-9--|
D|------------------------------|-----------------------------|
A|------------------------------|-----------------------------|
E|------------------------------|-----------------------------|


E|---------------------------|--------------------------------|
B|---------------------------|--------------------------------|
G|---------------------------|--------------------------------|
D|---9-x-x-7-x-9-9-x-7-8-----|--9-x-x-7-x-12-12x-11-10--------|
A|---7-x-x-5-x-7-7-x-5-6-----|--7-x-x-5-x-10-10x-9--8---------|
E|---------------------------|--------------------------------|
 |
 |
 |
E|---------------------------------|------------10-------------|
B|---10b12-10b12-10b12-10b12-10-8--|10b12-10-8-----10b12-8b10--|
G|---------------------------------|---------------------------|
D|---------------------------------|---------------------------|
A|---------------------------------|---------------------------|
E|---------------------------------|---------------------------|



E|---------------------------|-----------------------|
B|---------------------------|-----------------------|
G|---------------------------|-----------------------|
D|---9-x-x-7-x-9-9-x-7-8-----|--9-x-x-7-x-9-9-x-7-8--|
A|---7-x-x-5-x-7-7-x-5-6-----|--7-x-x-5-x-7-7-x-5-6--|
E|---------------------------|-----------------------|
 |
 |
 |
E|------------------------------|-----------------------------|
B|-10b12-10b12-10b12-10b12-10-8-|10b12-10-8-10b12-10-8--------|
G|------------------------------|----------------------7-8-9--|
D|------------------------------|-----------------------------|
A|------------------------------|-----------------------------|
E|------------------------------|-----------------------------|


E|---------------------------|-----------------------|
B|---------------------------|-----------------------|
G|---------------------------|-----------------------|
D|---9-x-x-7-x-9-9-x-7-8-----|--9-9-x-9-9-9----------|
A|---7-x-x-5-x-7-7-x-5-6-----|--7-7-x-7-7-7----------|
E|---------------------------|-----------------------|
 |
 |
 |
E|------------------------------|--------------------|
B|-10b12-10b12-10b12-10b12-10-8-|10b12--8------------|
G|------------------------------|-----------9--------|
D|------------------------------|--------------------|
A|------------------------------|--------------------|
E|------------------------------|--------------------|



E|---------------------------------------------------|
B|---3-----------------------------------------------|
G|---1-----------------------------------------------|
D|---2-----------------------------------------------|
A|---2-----------------------------------------------|
E|---0-----------------------------------------------|
 |
 |
 |
E|--10-----------------------------------------------|
B|---9-------9~~~~~~~~~~~~~~~~~~~--------------------|
G|---9-----------------------------------------------|
D|---9-----------------------------------------------|
A|---7-----------------------------------------------|
E|---------------------------------------------------|






Tablature Notation

h - hammer on
p - pull off
b - bend string up
r - release bend
/ - slide up
\ - slide down
v - vibrato (or ~)
Harm. - natural harmonics
x - play 'note' with heavy muting
tr - trill

Back to top Go down

Re: Hoshi no Furo Yoru ni Chords and Tab
Posted on Fri Apr 29, 2011 6:16 am


sasuke21

Caless Student
Caless Student
tnx for the post

Back to top Go down

Re: Hoshi no Furo Yoru ni Chords and Tab
Posted on Fri Apr 29, 2011 6:44 am


Aosaru

International Performer
International Performer
Thank You Ren! I've been waiting for these.


_________________________________________________________________________________________________
Back to top Go down

Re: Hoshi no Furo Yoru ni Chords and Tab
Posted on Thu May 12, 2011 11:34 am


sasazakira

Caless Student
Caless Student
nice~
but It's difficult for a newbie like me to play it, hehe

Back to top Go down

Re: Hoshi no Furo Yoru ni Chords and Tab
Posted on Thu May 12, 2011 3:47 pm


rock_chick

Mainstream Artist
Mainstream Artist
thanks for this =D


_________________________________________________________________________________________________



Back to top Go down

Re: Hoshi no Furo Yoru ni Chords and Tab
Posted on Thu Jun 02, 2011 3:51 pm


kellyriker

Caless Student
Caless Student
thanks for the tabs.it's a really great help.. Praise

Back to top Go down