SCANDAL - Don't Say Lazy (K-ON cover)
Posted on Fri Apr 29, 2011 6:50 pm


leelee

Caless Student
Caless Student
You thanked this post! -
Thanks received by this post:

Message reputation : 100% (1 vote)

Song: Don't Say Lazy
Artist: SCANDAL (K-ON cover)

Copied from my email and i dunno what happened, so the tab is abit out of place but its readable Happy. Here is my bass tab for Don't Say Lazy and Enjoy!

Intro
|---------------|----------|---------|----------|-----------------|
|---------------|----------|---------|----------|-----------------|
|---------------|--3(x8)-|--5(x8)-|--2(x8)-|--7(x4)-5(x4)-|
|-0--0--0--0-|----------|----------|---------|------------------|

|----------|-----------|-----------------|-----------|
|----------|-----------|-----------------|-----------|
|--3(x8)-|--5(x8)/--|-----------------|-----------|
|----------|-----------|--0/13--0-0---|--0/13\3-|

|----------|---------|----------|-----------------|
|----------|---------|----------|-----------------|
|--3(x8)-|--5(x8)-|--2(x8)-|--7(x4)-5(x4)-|
|----------|---------|----------|-----------------|

|----------|---------|-----------------|---------------|
|----------|---------|-----------------|---------------|
|--0(x8)-|--2(x8)-|-----------------|---------------|
|----------|---------|--0(x2)-0(x2)-|--0(x4)-10\-|

|-----------------|-----------------|
|-----------------|-----------------|
|-----------------|-----------------| x4
|--0(x2)-0-0-0-|-0-0-0(x2)-1-|

1ST VERSE

|-----------------|----------|-----------------|----------|
|-----------------|----------|-----------------|----------|
|-----------------|----------|-----------------|----------|
|--0(x2)-0(x2)-|--0(x2)-|--0(x2)-0(x2)-|--0(x4)--|

|-----------------|-----------------|-----------------|-----------------|
|-----------------|-----------------|-----------------|-----------------|
|-----------------|-----------------|-----------------|-----------------|
|--0(x2)-0-0-0-|-0-0-0(x2)-1-|--0(x2)-0-0-0-|-0-0-0(x2)-1-|

|-----------------|----------|-----------------|----------|
|-----------------|----------|-----------------|----------|
|-----------------|----------|-----------------|----------|
|--0(x2)-0(x2)-|--0(x2)-|--0(x2)-0(x2)-|--0(x4)-|

|------------------|----------------|-----------------|-----------------|
|------------------|----------------|-----------------|-----------------|
|------------------|----------------|-----------------|-----------------|
|--0(x2)-0-0-0-|-0-0-0(x2)-1-|--0(x2)-0-0-0-|-0-0-0(x2)-1-|

PRE-CHORUS

|---------|----------|----------|-----------------|
|---------|----------|----------|-----------------|
|--3(x8)-|--5(x8)-|--2(x8)-|--7(x4)-5(x4)-|
|---------|----------|----------|-----------------|

|---------|----------|----------|----------------------------|
|---------|----------|----------|----------------------------|
|--3(x8)-|--5(x8)-|--7(x4)-|--999-1010--12-10--9-|
|---------|----------|----------|----------------------------|

|----------|----------|----------|-----------------|
|----------|----------|----------|-----------------|
|--3(x8)-|--5(x8)--|--2(x8)-|--7(x4)-5(x4)-|
|----------|----------|----------|-----------------|

|----------|---------|----------|
|----------|---------|----------|
|----------|---------|----------|
|--7(x8)-|--8(x8)-|--9(x8)-|

CHORUS

|----------|---------|----------|-----------------|
|----------|---------|----------|-----------------|
|--3(x8)-|--5(x8)-|--2(x8)-|--7(x4)-5(x4)-|
|----------|---------|----------|-----------------|

|----------|----------|-----------------|-------------|
|----------|----------|-----------------|-------------|
|--3(x8)-|--5(x8)/-|-----------------|-------------|
|----------|----------|--0(x2)-0(x2)-|--0(x3)-8\-|

|----------|---------|----------|-----------------|
|----------|---------|----------|-----------------|
|--3(x8)-|--5(x8)-|--2(x8)-|--7(x4)-5(x4)-|
|----------|---------|----------|-----------------|

|----------|---------|-----------------|---------------|
|----------|---------|-----------------|---------------|
|--0(x8)-|--2(x8)-|-----------------|---------------|
|----------|---------|--0(x2)-0(x2)-|--0(x4)-12\-|

|------------------|----------------|
|------------------|----------------|
|------------------|----------------| x4
|--0(x2)-0-0-0-|-0-0-0(x2)-1-|

2ND VERSE

|-----------------|----------|-----------------|----------|
|-----------------|----------|-----------------|----------|
|-----------------|----------|-----------------|----------|
|--0(x2)-0(x2)-|--0(x2)-|--0(x2)-0(x2)-|--0(x4)-|

|------------------|----------------|
|------------------|----------------| x2
|------------------|----------------|
|--0(x2)-0-0-0-|-0-0-0(x2)-1-|

|-----------------|----------|-----------------|---------------|
|-----------------|----------|-----------------|---------------|
|-----------------|----------|-----------------|---------------|
|--0(x2)-0(x2)-|--0(x2)-|--0(x2)-0(x2)-|--0(x2)-10\-|

|-----------------|-----------------|
|-----------------|-----------------| x2
|-----------------|-----------------|
|--0(x2)-0-0-0-|-0-0-0(x2)-1-|

PRE-CHORUS

|----------|---------|----------|-----------------|
|----------|---------|----------|-----------------|
|--3(x8)-|--5(x8)-|--2(x8)-|--7(x4)-5(x4)-|
|----------|---------|----------|-----------------|

|----------|---------|---------|---------------------------|
|----------|---------|---------|---------------------------|
|--3(x8)-|--5(x8)-|--77----|--99-10--12-10--9-/3-|
|----------|---------|---------|---------------------------|

|----------|---------|----------|-----------------|
|----------|---------|----------|-----------------|
|--3(x8)-|--5(x8)-|--2(x8)-|--7(x4)-5(x4)-|
|----------|---------|----------|-----------------|

|----------|---------|-------------|
|----------|---------|-------------|
|--0(x8)-|--1(x8)-|--2(x14)/--|
|----------|---------|-------------|

CHORUS

|----------|---------|----------|-----------------|
|----------|---------|----------|-----------------|
|--3(x8)-|--5(x8)-|--2(x8)-|--7(x4)-5(x4)-|
|----------|---------|----------|-----------------|

|----------|----------|-----------------|---------------|
|----------|----------|-----------------|---------------|
|--3(x8)-|--5(x8)/-|-----------------|---------------|
|---------|-----------|--0(x2)-0(x2)-|--0(x3)-12\-|

|---------|----------|----------|-----------------|
|---------|----------|----------|-----------------|
|--3(x8)-|--5(x8)-|--2(x8)-|--7(x4)-5(x4)-|
|---------|----------|----------|-----------------|

|----------|---------|-----------------|---------------|
|----------|---------|-----------------|---------------|
|--0(x8)-|--2(x8)-|-----------------|---------------|
|----------|---------|--0(x2)-0(x2)-|--0(x4)-12\-|

BRIDGE/SOLO

|-----------------|----------|
|-----------------|----------|
|-----------------|----------|
|--0________|____----|

|----------|---------------------------|
|-------9/-|--14—-12--------------|
|----------|----14—-12—14------| x3
|--0-------|----------------------12-|

|------------|--------------------------|
|---------9/-|--14—-12-------------|
|------------|----14—-12—14-----| x7
|--0(x7)---|----------------------12-|

|---------|--------|
|---------|--------|
|---------|--------|
|--0(x8)-|--0----|

PRE-CHORUS

|----------|---------|----------|-----------------|
|----------|---------|----------|-----------------|
|--3(x8)-|--5(x8)-|--2(x8)-|--7(x4)-5(x4)-|
|---------|----------|----------|-----------------|

|----------|---------|------------------|
|----------|---------|------------------|
|--3(x8)-|--5(x8)-|--7(x8)-5(x4)--|
|----------|---------|------------------|

|----------|---------|----------|-----------------|
|----------|---------|----------|-----------------|
|--3(x8)-|--5(x8)-|--2(x8)-|--7(x4)-5(x4)-|
|----------|---------|----------|-----------------|

|----------|---------|----------|-------------|
|----------|---------|----------|-------------|
|--0(x8)-|--1(x8)-|--2(x7)/|--/14(x7)\--|
|----------|---------|---------|--------------|

MINI BRIDGE

|--16-14--------|
|---------16-----|
|------------14--|
|-----------------|

CHORUS

|----------|---------|----------|-----------------|
|----------|---------|----------|-----------------|
|--3(x8)-|--5(x8)-|--2(x8)-|--7(x4)-5(x4)-|
|----------|---------|----------|-----------------|

|----------|----------|-----------------|---------------|
|----------|----------|-----------------|---------------|
|--3(x8)-|--5(x8)/-|-----------------|---------------|
|----------|----------|--0(x2)-0(x2)-|--0(x3)-12\-|

|----------|---------|----------|-----------------|
|----------|---------|----------|-----------------|
|--3(x8)-|--5(x8)-|--2(x8)-|--7(x4)-5(x4)-|
|---------|----------|----------|-----------------|

|----------|---------|-----------------|---------------|
|----------|---------|-----------------|---------------|
|--0(x8)-|--2(x8)-|-----------------|---------------|
|----------|---------|--0(x2)-0(x2)-|--0(x4)-12\-|

OUTRO

|-----------------|------------------|
|-----------------|------------------| x4
|-----------------|------------------|
|--0(x2)-0-0-0-|--0-0-0(x2)-1-|

Back to top Go down

Re: SCANDAL - Don't Say Lazy (K-ON cover)
Posted on Thu Jul 07, 2011 2:30 pm


arbasta

Caless Student
Caless Student
????

Back to top Go down

Re: SCANDAL - Don't Say Lazy (K-ON cover)
Posted on Mon Jul 25, 2011 9:04 am


sl10

Caless Student
Caless Student
thanks a lot! Happy


_________________________________________________________________________________________________
~"Music is my Pride"~
Back to top Go down

Re: SCANDAL - Don't Say Lazy (K-ON cover)
Posted on Wed Aug 10, 2011 3:25 pm


akihisa

Caless Student
Caless Student
Thanks for the tabs Happy Onion

Back to top Go down

Re: SCANDAL - Don't Say Lazy (K-ON cover)
Posted on Tue Aug 23, 2011 7:04 am


achmad_hidayat

Caless Student
Caless Student
http://www.newslifes.com
arigatoo

Back to top Go down

Re: SCANDAL - Don't Say Lazy (K-ON cover)
Posted on Wed Aug 24, 2011 1:42 pm


esguester

Caless Student
Caless Student
http://twitter.com/Last_Olympian
Thaaaanks! :D I'm gonna try it out later. XD

Back to top Go down

Re: SCANDAL - Don't Say Lazy (K-ON cover)
Posted on Thu Feb 09, 2012 11:52 am


Kunikosanjo

Caless Student
Caless Student
Thank You ! Dies

Back to top Go down

Re: SCANDAL - Don't Say Lazy (K-ON cover)
Posted on Sat Sep 15, 2012 7:12 am


shokizuki

Caless Student
Caless Student
Thanks for the tab ^_^

Back to top Go down