CUTE! n Emotion Bass Tab
Posted on Tue May 17, 2011 6:42 am


muya

Indie Artist
Indie Artist
https://www.youtube.com/channel/UCxS_0_TYNXbjkcOkkZiyy9g
Copy n paste into notepad for better view..
Spoiler:
SCANDAL - CUTE!


Intro
F#|------------------------------------------------------------------------------------------------------------------|
C#|------------------------------------------------------------------------------------------------------------------|
G#|7--7--7-----7--7--7-7-------7--7--7--------------4-5-4--7--7--7-----7--7--7-7-------7--7--7--------------4-5-4--5-|
D#|--------7-9-----------7-9-7---------7-9-5--5-5-5----------------7-9-----------7-9-7---------7-9-5--5-5-5----------|


Verse
F#|-------------------------------------------------------------------------------------------------------------|
C#|---------------------------------6-6----6-6----6-6-----------------------------------------------------------|
G#|7-7----7-7----7-7----7-7-------6------6------6------6-4----4-4----4-4----4-4----2-2----2-2----7-7----7-7-7-7-|
D#|-----7------7------7------7-4----------------------------4------4------4------4------4------4------7---------|

F#|------------------------------------------------------------------------------------------------|
C#|7-7----7-7----7-7----7-7----6-6----6-6------------------4-4----4-4--4-7-7-----------------------|
G#|-----7------7------7------7------7------7-4-4----4-4--4------4------------7--------7(13x)-------|
D#|-----------------------------------------------4-----------------------------5--5---------7-7-7-|

F#|-----------------------------------------------------------------------------------------------------------9(7x)-|
C#|--------------------/11--11(4x)----11\------------------------------------------4(8x)-7-7----------------7-------|
G#|7(16x)--------4(7x)-------------11------2(8x)-7(6x)-7\--------3(8x)-------4(8x)-----------7--------7(8x)---------|
D#|-------4(16x)-------------------------------------------5(8x)-------4(8x)--------------------5--5----------------|

F#|--------------------------------------------------------------------------------|
C#|--------------------------------------------------------------------------------|
G#|----------7-----7------7-----7--------------------------------------------------|
D#|8--8(14x)---7-9---7-8----7-9---7-8--8--8(13x)-7--7-7-7-7-5/7-8--8-8-8-8-7/8-10\-|


Chorus
F#|------------------------------------------------------------------|
C#|-------------------------------------1(4x)-2(8x)------------5/12\-|
G#|-------------------------3(8x)-2(4x)-------------------5-5--------|
D#|3/10\--3(8x)-2(8x)-0(8x)-------------------------5(9x)------------|

F#|----------------------------------------------------------|
C#|------------------------------1(4x)-2(4x)-4(4x)-----------|
G#|------------------3(8x)-2(4x)-------------------------5-5-|
D#|3(8x)-2(8x)-0(8x)-------------------------------5(8x)-----|


Intro
F#|------------------------------------------------------------------------------------------------------------------|
C#|------------------------------------------------------------------------------------------------------------------|
G#|7--7--7-----7--7--7-7-------7--7--7--------------4-5-4--7--7--7-----7--7--7-7-------7--7--7--------------4-5-4--5-|
D#|--------7-9-----------7-9-7---------7-9-5--5-5-5----------------7-9-----------7-9-7---------7-9-5--5-5-5----------|


Verse
F#|-----------------------------------------------------------------------------------------------------------------|
C#|-----------------------------------6-6----6-6----6-6---------------------------------------------------7/9\------|
G#|7-7----7-7----7-7----7-7---------6------6------6------6-4-4----4-4----4-4----4-4----2-2----2-2----7-7--------7-7-|
D#|-----7------7------7------7-4-4------------------------------4------4------4------4------4------7----------------|

F#|-------------------------------------------------------------------------------------------9--9-7-6----|
C#|7-7----7-7----7-7----7-7----6-6----6-6------------------4-4----4-4--4-7-7----------------7----------9\-|
G#|-----7------7------7------7------7------7-4-4----4-4--4------4------------7--------7(6x)---------------|
D#|-----------------------------------------------4-----------------------------5--5----------------------|

F#|--------------------------------------------------------------------------------|
C#|--------------------------------------------------------------------------------|
G#|----------7-----7------7-----7--------------------------------------------------|
D#|8--8(14x)---7-9---7-8----7-9---7-8--8--8(13x)-7--7-7-7-7-5/7-8--8-8-8-8-7/8-10\-|


Chorus
F#|------------------------------------------------------------------|
C#|-------------------------------------1(4x)-2(8x)------------5/12\-|
G#|-------------------------3(8x)-2(4x)-------------------5-5--------|
D#|3/10\--3(8x)-2(8x)-0(8x)-------------------------5(9x)------------|

F#|----------------------------------------------------------|
C#|------------------------------1(4x)-2(4x)-4(4x)-----------|
G#|------------------3(8x)-2(4x)-------------------------5-5-|
D#|3(8x)-2(8x)-0(8x)-------------------------------5(8x)-----|


Solo
F#|--------------------------------------------------------------------|
C#|--------------------------------------------------------------------|
G#|----------7-----7------7-----7--------------------------------------|
D#|8--8(14x)---7-9---7-8----7-9---7-8--8--8(13x)-7--7(6x)-8--8(6x)-10\-|


Chorus
F#|-------------------------------------------------------------------------|
C#|--------------------------------------------1(4x)-2(8x)------------5/12\-|
G#|--------------------------------3(8x)-2(4x)-------------------5-5--------|
D#|5(8x)--3/10\--3(8x)-2(8x)-0(8x)-------------------------5(9x)------------|

F#|--------------------------------------------------------------------------------|
C#|/5--5(6x)-4(8x)-2(4x)-------------------1(4x)-2(4x)-4(4x)-----------------------|
G#|----------------------5(4x)-3(8x)-2(4x)-------------------------2(8x)-3(8x)-5-5-|
D#|----------------------------------------------------------5(8x)-----------------|

Outro
F#|---------------------------------------------------------------------------------------------------------------|
C#|---------------------------------------------------------------------------------------------------------------|
G#|7--7--7-----7--7--7-7-------7--7--7--------------4-5-4--7--7--7-----7--7--7-7-------7--7--7--------------4-5-4-|
D#|--------7-9-----------7-9-7---------7-9-5--5-5-5----------------7-9-----------7-9-7---------7-9-5--5-5-5-------|

F#|-----------------------------------------------------------------------------------------------------------------------9-|
C#|-------------------------------------------------------------------------------------------------------------------/11---|
G#|7--7--7-----7--7--7-7-------7--7--7--------------4-5-4--7--7--7-----7--7--7-7-------7--7--7--------------4-5-4--7--------|
D#|--------7-9-----------7-9-7---------7-9-5--5-5-5----------------7-9-----------7-9-7---------7-9-5--5-5-5-----------------|

Tabbed by Muya R..
Ya~ha~..!!
Spoiler:
SCANDAL - Emotion


Intro
G|-------------------------------------------------------------------------------------------------|
D<-------------------------------------------------------------------------------------------------|
A|5-5-5-----------5-5-5------------------1(8x)-3(8x)-------5-5-5-555-5-5-5-1(8x)-3(8x)-5(8x)-------|
E|-------1--3--5---------1--3--5--5/10\--------------5(8x)-----------------------------------1(8x)-|


Verse
G|-----------------------------------------------------------------------|
D<--------------------------------------------------------/12-12(5x)-12\-|
A|1-1-1-1-3-3-3-3---------5-5-5-5-1-1-1-1-3-3-3-3-5-5-5-5----------------|
E|----------------5-5-5-5------------------------------------------------|

G|-----------------------------------------------------|
D<--------------------------------------------7-7------|
A|1(8x)-------3(8x)-5(6x)-5\--1(16x)-0(7x)-/7------/5\-|
E|------1(8x)------------------------------------------|


Chorus
G|--------------------------------------------------------------------|
D<------------------------------------------------------------3-------|
A|1(8x)-3(8x)-------5-5-5-555-5-5-3-1(8x)-3(8x)-------5-5-5-35--5-3-5-|
E|------------5(8x)-----------------------------5(8x)-----------------|

G|---------------------------------7---------------------------------------------|
D<------------------------------/7---7---------------------------3--3-3----------|
A|1(8x)-3(8x)-0(4x)-4(4x)-5-5-5---------1(8x)-3(8x)-5-5-5--5-3-5-----------------|
E|----------------------------------------------------------------------1--1-1-1-|


Intro
G|----------------------------------------------------5---5-------------------------------|
D<----------------------------------------------------------------------------------------|
A|1(8x)-3-3-3-333-3-3-3-------5-5-5-555-5-5-3-1(8x)-3---3---3-3-3-3-------5-5-5-555-5-5-5-|
E|----------------------5(8x)---------------------------------------5(8x)-----------------|

G|-------------------------------------------7------------5------------------------------------------|
D<----------------------------------------/7---7-------------------------------------3--3-3----------|
A|1(8x)-3-3-3-333-3-3-3-0(4x)-4(4x)-5-5-5---------1(8x)-3---3-333-3-3-3-5-5-5--5-3-5-----------------|
E|------------------------------------------------------------------------------------------1--1-1-1-|


Verse
G|---------------------------------------------------------------------------------------|
D<----------------------/12--12-12-12\--------------------------------------------/7--7\-|
A|---------3(8x)-5(11x)-----------------1(8x)-------3(8x)-5(6x)-5\--1(16x)-0(11x)--------|
E|/6-6(8x)------------------------------------1(8x)--------------------------------------|


Chorus
G|--------------------------------------------------------------------------------------------------------|
D<--------------------------------------------------------------------------------------------------------|
A|1(8x)-3(8x)-------5\----1(8x)-3(8x)-0(4x)-4(4x)-5-5-5-555-5-5-3-1(8x)-3(8x)-5-5-5--5-3-5----------------|
E|------------5(8x)------------------------------------------------------------------------1--1-1-1--1/8\-|

G|--------------------------------------------------------------------|
D<------------------------------------------------------------3-------|
A|1(8x)-3(8x)-------5-5-5-555-5-5-3-1(8x)-3(8x)-------5-5-5-35--5-3-5-|
E|------------5(8x)-----------------------------5(8x)-----------------|

G|---------------------------------7---------------------------------------------|
D<------------------------------/7---7---------------------------3--3-3----------|
A|1(8x)-3(8x)-0(4x)-4(4x)-5-5-5---------1(8x)-3(8x)-5-5-5--5-3-5-----------------|
E|----------------------------------------------------------------------1--1-1-1-|


Outro
G|-----------------------------|
D<-----------------------------|
A|1(8x)-3(8x)-------5(5x)-5/8\-|
E|------------5(8x)------------|

Tabbed by Muya R..
Ya~ha~..!!
i hope you understand.. Onion Sigh

CUTE!..
http://www.mediafire.com/?wl2rqg6d3e4wown..
Emotion..
http://www.mediafire.com/?24xj77pm9eofffn..
Onion Whistle



Last edited by muya on Fri Jun 03, 2011 2:36 pm; edited 2 times in total (Reason for editing : add emotion..)

Back to top Go down

Re: CUTE! n Emotion Bass Tab
Posted on Wed May 18, 2011 8:40 am


angelstar2408

Caless Student
Caless Student
Thanks for this! I've been waiting. Happy))
Any chance you could tab Emotion too?

Back to top Go down

Re: CUTE! n Emotion Bass Tab
Posted on Fri May 27, 2011 8:45 am


sl10

Caless Student
Caless Student
Oh! thanks for the tabs!! Really like this song! ROFL


_________________________________________________________________________________________________
~"Music is my Pride"~
Back to top Go down

Re: CUTE! n Emotion Bass Tab
Posted on Sat May 28, 2011 2:59 pm


NOIR

Caless Student
Caless Student
can you make it into guitar pro tab? onegaishimasu! Please

Back to top Go down

Re: CUTE! n Emotion Bass Tab
Posted on Tue May 31, 2011 1:01 am


muya

Indie Artist
Indie Artist
https://www.youtube.com/channel/UCxS_0_TYNXbjkcOkkZiyy9g
angelstar2408 wrote:Thanks for this! I've been waiting. Happy))
Any chance you could tab Emotion too?
Maybe later, just wait..

NOIR wrote:can you make it into guitar pro tab? onegaishimasu! Please
I'll try later..

Back to top Go down

Re: CUTE! n Emotion Bass Tab
Posted on Tue Jun 07, 2011 12:52 pm


sl10

Caless Student
Caless Student
Wish that you can post a bass tab of FUTURE! Nice One


_________________________________________________________________________________________________
~"Music is my Pride"~
Back to top Go down

Re: CUTE! n Emotion Bass Tab
Posted on Tue Jun 14, 2011 7:22 am


muya

Indie Artist
Indie Artist
https://www.youtube.com/channel/UCxS_0_TYNXbjkcOkkZiyy9g
I already tabbed FUTURE..
if you want the gp, here is the link..
http://www.mediafire.com/?9bbgo94lkmaep5d..

Back to top Go down

Re: CUTE! n Emotion Bass Tab
Posted on Sun Jun 26, 2011 6:18 am


arbasta

Caless Student
Caless Student
Thank ^^ Amazed

Back to top Go down

Re: CUTE! n Emotion Bass Tab
Posted on Wed Aug 10, 2011 7:39 am


ShckAbsrber

Caless Student
Caless Student
Woot~ CUTE! one of my faves. Thanks for the tabs! :D

Back to top Go down

Re: CUTE! n Emotion Bass Tab
Posted on Wed Aug 01, 2012 1:46 pm


chanokun

Caless Student
Caless Student
THANK YOU SO MUCH! :D

Back to top Go down

Re: CUTE! n Emotion Bass Tab
Posted on Sun Aug 19, 2012 3:57 pm


Andika

SPAMMER
SPAMMER
Nice One thank you^

Back to top Go down