Haruka ~Special Version~ Guitar TAB
Posted on Mon Jul 04, 2011 5:03 am


Jibba

Mainstream Artist
Mainstream Artist
http://www.youtube.com/user/xJibba?feature=mhee
SCANDAL
Haruka ~Special Version~


Tabbed by ~Jibba

Intro
-------------------------------------------------/15--13---12------------------------------------------------------
----------------------13--12-------12----------------------------12---13---15---17---------------------------------
------------12---14-----------12--------12-------------------------------------------------------------------------
----12--14---------------------------------------------------------------------------------------------------------
-------------------------------------------------------------------------------------------------------------------
-------------------------------------------------------------------------------------------------------------------

-----------------------------------------------------------15---13---12~-----19~--20~--20b22b20--------------------
---------------------13--12--------12-----------------13-----------------------------------------------------------
------------12---14----------12---------12-----12h14---------------------------------------------------------------
----12--14---------------------------------------------------------------------------------------------------------
-------------------------------------------------------------------------------------------------------------------
-------------------------------------------------------------------------------------------------------------------

Verse
-------------------------------------------------------------------------------------------------------------------
------13-----15------13--------13-------15------13------------12------13------12-------13-----15------13-----------
--12-----12------12--------12------12-------12------------12------12------12-------12-----12------12---------------
-------------------------------------------------------------------------------------------------------------------
-------------------------------------------------------------------------------------------------------------------
-------------------------------------------------------------------------------------------------------------------

--------------------------------------------------------------------------------15---19---15-------15/17\15--------
------13-----15------13--------12-------13-----12---------13------15------13------------------17---15/17\15--------
--12-----12------12--------12------12------12---------12------12------12-------------------------------------------
-------------------------------------------------------------------------------------------------------------------
-------------------------------------------------------------------------------------------------------------------
-------------------------------------------------------------------------------------------------------------------

F7 G7 Em Am

--5------5----3----------------------------------------------------------------------------------------------------
-----6------------3-----5--6---5---3----------5b6b5------5b6b5-----------------------------------------------------
---------------------------------------5-5-----------5-------------------------------------------------------------
-------------------------------------------------------------------------------------------------------------------
-------------------------------------------------------------------------------------------------------------------
-------------------------------------------------------------------------------------------------------------------

Pre Chorus
--------------------------------------------------------------------------------------------------------------------
-----------------------------------------------------------------------xx10xx/--------------------------------------
-----------------------------------------------------------------------xx10xx/----------12-12-12--------------------
--------3-----6---5~-------4~-------3~--------2~----------------------------------------12-12-12--------------------
-----3--------------------------------------------------------------------------------------------------------------
--4-------------------------------------------------3--4--5---------------------------------------------------------

Chorus

F G Em Am
Dm G C C7
F G Am Em
Dm G Am
F G Em Am
Dm G C C7
F E/G# Am Bb
Dm G Am

Intro Repeat

Verse 2 (wah-wah!) C C7
-------------------------------------------------------------------------------------------------------------------
-------------------------------------------------------------------------------------------------------------------
----3--3--3---xxxx--5--5--5--xxxx--2--2--2--xxxxx----7--7--7--xxxx------------------5--5--5--xxxx------------------
----------------------------------------------------------------------5--5--5-xxxx---------------------------------
-------------------------------------------------------------------------------------------------------------------
-------------------------------------------------------------------------------------------------------------------

F7 G7 Em Am

--5------5----3----------------------------------------------------------------------------------------------------
-----6------------3-----5--6---5---3-------------------------------------------------------------------------------
---------------------------------------5-5-------------------------------------------------------------------------
-------------------------------------------------------------------------------------------------------------------
-------------------------------------------------------------------------------------------------------------------
-------------------------------------------------------------------------------------------------------------------

Chorus Repeat

Solo
--------------------------------------------------16~----------------------------------------------------20~-------
-/15~---15b18b15-----/15~---13-12-13~------------------16~----------------------------13-12--13--12----------------
------------------------------------------------------------17~----15~--12-13--12----------------------------------
-------------------------------------------------------------------------------------------------------------------
-------------------------------------------------------------------------------------------------------------------
-------------------------------------------------------------------------------------------------------------------

Bride/Pre Chorus Repeat

Chorus Repeat

Intro Repeat

Notepad Link for better viewing

Tsunvun's Chords (same)


_________________________________________________________________________________________________
Back to top Go down

Re: Haruka ~Special Version~ Guitar TAB
Posted on Mon Jul 25, 2011 9:03 am


sl10

Caless Student
Caless Student
wow thanks! Nice One


_________________________________________________________________________________________________
~"Music is my Pride"~
Back to top Go down

Re: Haruka ~Special Version~ Guitar TAB
Posted on Sun Feb 24, 2013 4:13 pm


Andika

SPAMMER
SPAMMER
arigatouu Hi

Back to top Go down