ONE PIECE chords [Page 1 of 1]

ONE PIECE chords
Posted on Wed Aug 03, 2011 11:25 am


macdyne73

Mainstream Artist
Mainstream Artist
You thanked this post! -
Thanks received by this post:

Message reputation : 100% (4 votes)

Here you go boys and girls. Might not be 100% perfect but should be good enough for campfires. Tongue

Enjoy!

Spoiler:

intro
C#m B A

verse
E A E A
Ebm7 Ab C#m B
F# Am

rpt verse

pre c/o
Abm C#m F#m B
Abm C#m A B
C#

c/o
B C# F# Ab
B Bb Ebm7 Ab
B D/Bb Ebm7 C#
B C# F# Ab

B C# F# Ab
B Bb Ebm7 Ab
B D/Bb Ebm7 C#
Abm C#

interlude
F# Abm Bbm B X3
F# Abm A B

rpt verse

rpt pre c/o

- piano interlude -
F# B C# Ebm7
F# B D C#

bridge
B C# Ebm7 F# X2
B C#-Dm-Ebm7 F#
D C#

C/o

rpt interlude

intro



Last edited by macdyne73 on Sun Aug 14, 2011 2:21 pm; edited 1 time in total

Back to top Go down

Re: ONE PIECE chords
Posted on Sat Aug 13, 2011 2:50 am


wormwood

Mainstream Artist
Mainstream Artist
thanks macdyne! I enjoy playing this. Happy

Back to top Go down

Re: ONE PIECE chords
Posted on Sat Aug 13, 2011 10:00 am


MadOrange

Shiroten Performer
Shiroten Performer
thank you.. Happy


_________________________________________________________________________________________________

                                                                                                                                            otakumi
Back to top Go down

Re: ONE PIECE chords
Posted on Sun Aug 14, 2011 1:54 pm


Nikki

Indie Artist
Indie Artist
Thank you! It sounds really close! :3
But can you tell me pls how should I take this chord "D/Bb"? ._.

Back to top Go down

Re: ONE PIECE chords
Posted on Sun Aug 14, 2011 2:20 pm


macdyne73

Mainstream Artist
Mainstream Artist
Nikki wrote:Thank you! It sounds really close! :3
But can you tell me pls how should I take this chord "D/Bb"? ._.

I'm not really sure what the right chord is actually but Bb sounds about right. If you have a bassist, he/she should play D here.

Back to top Go down

Re: ONE PIECE chords
Posted on Sun Aug 14, 2011 2:35 pm


Nikki

Indie Artist
Indie Artist
So I should play only Bb?
Thanx)

Back to top Go down

Re: ONE PIECE chords
Posted on Wed Aug 17, 2011 4:21 am


Mercurius

Caless Student
Caless Student
http://greywings.net
Thanks! This is one of my favorites from BA.

Back to top Go down

Re: ONE PIECE chords
Posted on Wed Aug 17, 2011 6:40 am


ILYRina-chan

Shiroten Performer
Shiroten Performer
This song is one of my favorites along with Burn. Thanks for the tabs. XD


_________________________________________________________________________________________________
"Do not lose your composure...
Do not break your stance...
Stretch out your awareness...
And do not let your guard down for even a second."
+Ulquiorra Schiffer+
Back to top Go down

Re: ONE PIECE chords
Posted on Sun Aug 21, 2011 7:25 am


Harriat

Caless Student
Caless Student
http://harriat.withlovee.com
Thank you!!
I will try playing this song ♥

Back to top Go down

Re: ONE PIECE chords
Posted on Fri Aug 26, 2011 4:19 am


windy saputra

Caless Student
Caless Student
thank for posting chord one piece...,,,


_________________________________________________________________________________________________
Back to top Go down

Re: ONE PIECE chords
Posted on Wed Aug 31, 2011 4:51 pm


guueen

Caless Student
Caless Student
thanks for the tabs! :D


_________________________________________________________________________________________________
LOVE i always go "kyaaaaaaaaaa~" for SCANDAL LOVE
Back to top Go down

Re: ONE PIECE chords
Posted on Thu Sep 08, 2011 11:32 am


Azfar94

Caless Student
Caless Student
l ike this song ! thx for the chords

Back to top Go down

Re: ONE PIECE chords
Posted on Wed May 30, 2012 7:40 am


ILYRina-chan

Shiroten Performer
Shiroten Performer
I tried tabbing macdyne73's chords with the help of a guitar chords site.

Code:
One piece – SCANDAL

Intro
C#m B A

-0-----2-----0-----
-2-----4-----2-----
-1-----4-----2-----
-2-----4-----2-----
-x-----2-----0-----
-x-----2-----x-----

Verse 1
E A E A

-0-----0-----0-----0-----
-0-----2-----0-----2-----
-1-----2-----1-----2-----
-2-----2-----2-----2-----
-2-----0-----2-----0-----
-0-----x-----0-----x-----

Ebm7 Ab C#m B

-2-----4-----0-----2-----
-2-----4-----2-----4-----
-3-----5-----1-----4-----
-1-----6-----2-----4-----
-x-----6-----x-----2-----
-x-----4-----x-----2-----

F# Am

-2-----0-----
-2-----1-----
-3-----2-----
-4-----2-----
-4-----x-----
-2-----x-----

Repeat Verse





Pre-chorus
Abm C#m F#m B

-4-----0-----2-----2-----
-4-----2-----2-----4-----
-4-----1-----2-----4-----
-6-----2-----4-----4-----
-6-----x-----4-----2-----
-4-----x-----2-----2-----

Abm C#m A B

-4-----0-----0-----2-----
-4-----2-----2-----4-----
-4-----1-----2-----4-----
-6-----2-----2-----4-----
-6-----x-----0-----2-----
-4-----x-----x-----2-----

C#

-1-----
-2-----
-1-----
-3-----
-x-----
-x-----

Chorus

B C# F# Ab

-2-----1-----2-----4-----
-4-----2-----2-----4-----
-4-----1-----3-----5-----
-4-----3-----4-----6-----
-2-----x-----4-----6-----
-2-----x-----2-----4-----

B Bb Ebm7 Ab

-2-----1-----2-----4-----
-4-----3-----2-----4-----
-4-----3-----3-----5-----
-4-----3-----1-----6-----
-2-----1-----x-----6-----
-2-----1-----x-----4-----


B D/Bb Ebm7 C#

-2-----1-----2-----1-----
-4-----3-----2-----2-----
-4-----3-----3-----1-----
-4-----3-----1-----3-----
-2-----1-----x-----x-----
-2-----1-----x-----x-----

B C# F# Ab

-2-----1-----2-----4-----
-4-----2-----2-----4-----
-4-----1-----3-----5-----
-4-----3-----4-----6-----
-2-----x-----4-----6-----
-2-----x-----2-----4-----

B C# F# Ab

-2-----1-----2-----4-----
-4-----2-----2-----4-----
-4-----1-----3-----5-----
-4-----3-----4-----6-----
-2-----x-----4-----6-----
-2-----x-----2-----4-----

B Bb Ebm7 Ab

-2-----1-----2-----4-----
-4-----3-----2-----4-----
-4-----3-----3-----5-----
-4-----3-----1-----6-----
-2-----1-----x-----6-----
-2-----1-----x-----4-----


B D/Bb Ebm7 C#

-2-----1-----2-----1-----
-4-----3-----2-----2-----
-4-----3-----3-----1-----
-4-----3-----1-----3-----
-2-----1-----x-----x-----
-2-----1-----x-----x-----








Abm C#

-4-----1-----
-4-----2-----
-4-----1-----
-6-----3-----
-6-----x-----
-4-----x-----

Interlude
F# Abm Bbm B (X3)

-2-----4-----1-----2-----
-2-----4-----2-----4-----
-3-----4-----3-----4-----
-4-----6-----3-----4-----
-4-----6-----1-----2-----
-2-----4-----1-----2-----

F# Abm A B

-2-----4-----0-----2-----
-2-----4-----2-----4-----
-3-----4-----2-----4-----
-4-----6-----2-----4-----
-4-----6-----0-----2-----
-2-----4-----x-----2-----

Repeat Verse

Repeat Pre-Chorus

Piano Interlude
F# B C# Ebm7

-2-----2-----1-----2-----
-2-----4-----2-----2-----
-3-----4-----1-----3-----
-4-----4-----3-----1-----
-4-----2-----x-----x-----
-2-----2-----x-----x-----

F# B D C#

-2-----2-----2-----1-----
-2-----4-----3-----2-----
-3-----4-----2-----1-----
-4-----4-----0-----3-----
-4-----2-----x-----x-----
-2-----2-----x-----x-----



Bridge
B C# Ebm7 F# (X2)

-2-----1-----2-----2-----
-4-----2-----2-----2-----
-4-----1-----3-----3-----
-4-----3-----1-----4-----
-2-----x-----x-----4-----
-2-----x-----x-----2-----

B C#-Dm-Ebm7 F#

-2-----1-----1-----2-----2-----
-4-----2-----3-----2-----2-----
-4-----1-----2-----3-----3-----
-4-----3-----0-----1-----4-----
-2-----x-----x-----x-----4-----
-2-----x-----x-----x-----2-----

D C#

-2-----1-----
-3-----2-----
-2-----1-----
-0-----3-----
-x-----x-----
-x-----x-----

Chorus

Repeat Interlude

Repeat Intro

If there are mistakes, feel free to tell me (or let the admins who know how to play a guitar edit them.)

Enjoy!

(I'm not 100% sure about this but give it a try. After all, I used macdyne73's chords to turn them into tabs.)


_________________________________________________________________________________________________
"Do not lose your composure...
Do not break your stance...
Stretch out your awareness...
And do not let your guard down for even a second."
+Ulquiorra Schiffer+
Back to top Go down

Re: ONE PIECE chords
Posted on Sat Mar 30, 2013 5:20 am


meimeimadarao

Shiroten Performer
Shiroten Performer
...i dunno how to read tabs QAQ


_________________________________________________________________________________________________
 DANCE!!!!!!!!!!!!!!!!!!!! CANTA DANCE
Back to top Go down

Re: ONE PIECE chords
Posted on Mon Apr 01, 2013 11:14 am


ILYRina-chan

Shiroten Performer
Shiroten Performer
Any way to replace Ebm7? I have problems switching to that chord :/


_________________________________________________________________________________________________
"Do not lose your composure...
Do not break your stance...
Stretch out your awareness...
And do not let your guard down for even a second."
+Ulquiorra Schiffer+
Back to top Go down

Re: ONE PIECE chords
Posted on Mon Apr 01, 2013 4:58 pm


worldlover

Caless Student
Caless Student
You thanked this post! -
Thanks received by this post:

Message reputation : 100% (1 vote)

ILYRina-chan wrote:Any way to replace Ebm7? I have problems switching to that chord :/

Try to see if xx4342 would be easier for you...it's an inverted Ebm without the b7th.
Which fingering do you have problem with at the first place?

Back to top Go down

Re: ONE PIECE chords
Posted on Tue Apr 09, 2013 1:04 pm


ILYRina-chan

Shiroten Performer
Shiroten Performer
worldlover wrote:
ILYRina-chan wrote:Any way to replace Ebm7? I have problems switching to that chord :/

Try to see if xx4342 would be easier for you...it's an inverted Ebm without the b7th.
Which fingering do you have problem with at the first place?

Thank you~! This chord is much better because after the chord 'A', it's hard for my fingers to switch to Ebm7 since the one I use is xx1322. Really helpful~! Clap


_________________________________________________________________________________________________
"Do not lose your composure...
Do not break your stance...
Stretch out your awareness...
And do not let your guard down for even a second."
+Ulquiorra Schiffer+
Back to top Go down

Re: ONE PIECE chords
Posted on Wed Apr 10, 2013 11:33 pm


worldlover

Caless Student
Caless Student
You thanked this post! -
Thanks received by this post:

Message reputation : 100% (1 vote)

ILYRina-chan wrote:
worldlover wrote:
ILYRina-chan wrote:Any way to replace Ebm7? I have problems switching to that chord :/

Try to see if xx4342 would be easier for you...it's an inverted Ebm without the b7th.
Which fingering do you have problem with at the first place?

Thank you~! This chord is much better because after the chord 'A', it's hard for my fingers to switch to Ebm7 since the one I use is xx1322. Really helpful~!

No problem!

Can you play barre chords?

A - 577655
Ebm7 - x68676

Switching between them should be easy with some practice!

Back to top Go down

Re: ONE PIECE chords
Posted on Sat Apr 13, 2013 10:21 am


ILYRina-chan

Shiroten Performer
Shiroten Performer
worldlover wrote:
ILYRina-chan wrote:
worldlover wrote:
ILYRina-chan wrote:Any way to replace Ebm7? I have problems switching to that chord :/

Try to see if xx4342 would be easier for you...it's an inverted Ebm without the b7th.
Which fingering do you have problem with at the first place?

Thank you~! This chord is much better because after the chord 'A', it's hard for my fingers to switch to Ebm7 since the one I use is xx1322. Really helpful~!

No problem!

Can you play barre chords?

A - 577655
Ebm7 - x68676

Switching between them should be easy with some practice!

Yeah. I can play bar chords Happy Thanks again! Playing 'A' as bar chord will be a challenge for me ^_^


_________________________________________________________________________________________________
"Do not lose your composure...
Do not break your stance...
Stretch out your awareness...
And do not let your guard down for even a second."
+Ulquiorra Schiffer+
Back to top Go down

Re: ONE PIECE chords
Posted on Wed Jul 03, 2013 12:29 pm


Mitchan

International Performer
International Performer
http://www.wattpad.com/user/MitchanAnni
Thank you so much!! Chords are AMAZIng! Gotta try to play Amazed


_________________________________________________________________________________________________

                 Tears of Joy
Back to top Go down

Re: ONE PIECE chords
Posted on Wed Jul 03, 2013 12:30 pm


Mitchan

International Performer
International Performer
http://www.wattpad.com/user/MitchanAnni
meimeimadarao wrote:...i dunno how to read tabs QAQ

 Me too Cry


_________________________________________________________________________________________________

                 Tears of Joy
Back to top Go down

Re: ONE PIECE chords
Posted on Mon Jul 22, 2013 10:26 pm


chaeorz

Indie Artist
Indie Artist
Thanks for the chords! Happy 

Uhm.. Anyone knows Mami's tab parts? Please

Back to top Go down