Chords for BURN! [Page 1 of 1]

Chords for BURN!
Posted on Sun Aug 14, 2011 8:09 am


macdyne73

Mainstream Artist
Mainstream Artist
Here are chords for BURN. I have actually figured out the intro but I can't tab it because I don't know how.. So sorry for that...

Spoiler:


Chords:-
Ebadd9 x68866
C#add9 X46644

BURN

Intro
Bb C Dm C Bb
Bb C Dm

intro solo
Bb C Dm

verse
Bb C Bb C
Bb Dm Bb Am
Bb C

c/o
Bb C Dm X3
Am
Bb C Dm X3
Bb C

Bb C Dm

verse
Bb C
Bb Dm Bb Am
Bb C C

Rpt c/o

Solo
Bb C Dm X2
Bb C Am Dm
Bb C

Rpt c/o

outro breakdown
Bb Ebadd9 C#add9 F# X4
Bb....

Back to top Go down

Re: Chords for BURN!
Posted on Sun Aug 14, 2011 6:49 pm


Noodles

Global Moderator
Global Moderator
http://atarashiimusic.com
Intro riff for burn, tabbed by me, so if theres something wrong or you think should be changed, let me know.

E l----------------------------------------------5--5-----------------------------------------
B l----------------------------------------------6--6-----------------------------------------
G l----------------------------------------------7--7-----------------------------------------
D l----------------------------3h5------------------------------------------------------------
A l---1---3/5 --1---1--3----------3h5---------------5--3--------------------------------
E l--------------------------------------------------------------------------------------------- x2


_________________________________________________________________________________________________
Back to top Go down

Re: Chords for BURN!
Posted on Tue Aug 16, 2011 9:20 pm


Mercurius

Caless Student
Caless Student
http://greywings.net
Thank you both! I'm having a little trouble with the first half of the riff, not quite sure how to strum it like the CD. Guess I just need to keep practicing >_<.

Back to top Go down

Re: Chords for BURN!
Posted on Tue Aug 16, 2011 9:24 pm


Hollowkenshin

Caless Student
Caless Student
http://hollow-kenshin.deviantart.com/
E |--------------------------------|--------------------------------|
B |--------------------------------|--------------------------------|
G |----------------3--------3----|--x--x--5-----x--x------------|
D |----------------3--------3----|--x--x--5-----x--x--3--5----|
A |--1-----3s-5-----------------|---------3----------------------|
E |--------------------------------|--------------------------------|

-----------------------------------|-------------------------------|
--------------------6--------6----|-------------------------------|
-------------7-----7--------7----|--x--x--7-----x--x--5-------|
-------------7-----7--------7----|--x--x--7-----x--x--5-------|
--3s-5-----5-----5--------5----|--x--x--5-----x--x--3-------|
-----------------------------------|-------------------------------|

repeat.

Enjoy Happy

Back to top Go down

Re: Chords for BURN!
Posted on Tue Aug 16, 2011 9:53 pm


Noodles

Global Moderator
Global Moderator
http://atarashiimusic.com
Hollowkenshin wrote:E |--------------------------------|--------------------------------|
B |--------------------------------|--------------------------------|
G |----------------3--------3----|--x--x--5-----x--x------------|
D |----------------3--------3----|--x--x--5-----x--x--3--5----|
A |--1-----3s-5-----------------|---------3----------------------|
E |--------------------------------|--------------------------------|

-----------------------------------|-------------------------------|
--------------------6--------6----|-------------------------------|
-------------7-----7--------7----|--x--x--7-----x--x--5-------|
-------------7-----7--------7----|--x--x--7-----x--x--5-------|
--3s-5-----5-----5--------5----|--x--x--5-----x--x--3-------|
-----------------------------------|-------------------------------|

repeat.

Enjoy Happy

This actually sounds much better, thanks!

I still feel that the note after the slide is a 1 on the A string, had the same issue with matt haha, it must be me then Sad


_________________________________________________________________________________________________
Back to top Go down

Re: Chords for BURN!
Posted on Tue Aug 16, 2011 11:06 pm


Jibba

Mainstream Artist
Mainstream Artist
http://www.youtube.com/user/xJibba?feature=mhee
I've tried to tab out the intro solo section

Here is the simple version with the main melody

E |----8--6--5--6--5------------------------8--6--5--6--5-------------------------
B |-------------------6--5--6/8--8\6-------------------------6--5---6/8--8/10-----
G |-------------------------------------------------------------------------------
D |-------------------------------------------------------------------------------
A |-------------------------------------------------------------------------------
E |-------------------------------------------------------------------------------

This is the more difficult way to play it with the harmonies
E |----8--6--5--6--5------------------------8--6--5--6--5-------------------------
B |----10-8--6--8--6--6--5--6/8--8\6--------10-8--6--8--6----6--5---6/8--8/10-----
G |-------------------7--5--7/9--9\7-------------------------7--5---7/9--9/10-----
D |-------------------------------------------------------------------------------
A |-------------------------------------------------------------------------------
E |-------------------------------------------------------------------------------

The very last slide might be difficult if you are using your first finger on the 8th fret and your second on the 10th, but if you BAR your first finger across the B and G string, when you reach that last slide, you can just slide the one index finger from the 8th to 10th fret (ie: play x88xxx instead of the x89xxx written for a split second before the slide up to x1010xxx)

Good luck!


_________________________________________________________________________________________________
Back to top Go down

Re: Chords for BURN!
Posted on Wed Aug 17, 2011 6:58 pm


Hollowkenshin

Caless Student
Caless Student
http://hollow-kenshin.deviantart.com/
Just a minor correction if you don't mind

E |----8--6--5--6--5--------------------------------------8--6--5--6--5-------------------------
B |-----------------------6--5--6/8--8--(no slide)6-------------------------6--5---8--8/10-----
G |-------------------------------------------------------------------------------
D |-------------------------------------------------------------------------------
A |-------------------------------------------------------------------------------
E |-------------------------------------------------------------------------------

Back to top Go down

Re: Chords for BURN!
Posted on Fri Aug 19, 2011 8:50 am


tsunvun86

Indie Artist
Indie Artist
http://tsunvun86.wordpress.com/
This is how I play it Happy

Code:

SCANDAL - BURN


Intro:
----------------------------------5--x-5-x-x-5-x-x-3--
----------------------------------6--x-6-x-x-6-x-x-5--
-------3--x-3-x-x-5-x-x-----------7--x-7-x-x-7-x-x-5--
-------3--x-3-x-x-5-x-x-3h5-----5-7--x-7-x-x-7-x-x-5--  (x2)
-1-3/5-1--x-1-x-x-3-x-x-----3/5---5--x-5-x-x-5-x-x-3--
------------------------------------------------------

-8--6-5-6-5----------------8--6-5-6-5-----------------
-10-8-6-8-6--6-5--6/8--6---10-8-6-8-6--6-5--6/8--8/10-
-------------7-5--7/9--7---------------7-5--7/9--9/10-
------------------------------------------------------
------------------------------------------------------
------------------------------------------------------

Transcribed by,
tsunvun86


_________________________________________________________________________________________________
Back to top Go down

Re: Chords for BURN!
Posted on Fri Aug 19, 2011 9:54 pm


pranglefu

Caless Student
Caless Student
anyone know the tab for GLAMOROUS YOU and Sono Toki, Sekai wa Kimi Darake no Rain???

Back to top Go down

Re: Chords for BURN!
Posted on Sat Aug 20, 2011 11:21 pm


MadOrange

Shiroten Performer
Shiroten Performer
yay. thank you. Happy


_________________________________________________________________________________________________

                                                                                                                                            otakumi
Back to top Go down

Re: Chords for BURN!
Posted on Sun Aug 21, 2011 10:57 pm


sasayaita

Caless Student
Caless Student
cool thank you so much!

Back to top Go down

Re: Chords for BURN!
Posted on Sat Sep 03, 2011 12:48 am


tempostorm

Shiroten Performer
Shiroten Performer
thanks for the tabs guys Happy i managed to play it out on a classical guitar(no electric yet) and now all i need to work on is the speed Clap

Back to top Go down

Re: Chords for BURN!
Posted on Thu Sep 08, 2011 4:31 am


Azfar94

Caless Student
Caless Student
Thx for the chords

Back to top Go down

Re: Chords for BURN!
Posted on Tue Sep 13, 2011 8:46 pm


-gloria-

Caless Student
Caless Student
ty all u , search for so long ^^

Back to top Go down

Re: Chords for BURN!
Posted on Fri Sep 23, 2011 2:08 am


akihito_ajibana

Caless Student
Caless Student
http://www.youtube.com/RedExK
pranglefu wrote:anyone know the tab for GLAMOROUS YOU and Sono Toki, Sekai wa Kimi Darake no Rain???

here

http://redexk.wordpress.com/2011/09/02/glamorous-you-by-scandal/

http://redexk.wordpress.com/2011/09/03/sono-toki-sekai-wa-kimi-darake-no-lane-by-scandal/

and i also have tabs for this... Clap but I made another thread about it. Scared Nervous . so maybe it could get deleted White Flag

http://redexk.wordpress.com/2011/09/23/burn-by-scandal/



Last edited by akihito_ajibana on Fri Sep 23, 2011 8:42 am; edited 1 time in total (Reason for editing : forgot a link)


_________________________________________________________________________________________________
Nice One RedExK loves SCANDAL
Back to top Go down

Re: Chords for BURN!
Posted on Fri Sep 23, 2011 5:54 am


tsunvun86

Indie Artist
Indie Artist
http://tsunvun86.wordpress.com/
You thanked this post! -
Thanks received by this post:

Message reputation : 100% (2 votes)

Just tabbed the solo part for a friend. Might as well put it here as well :D

Code:

Solo:
-----------------------------------------------------------------------------------
-----------/13--13--11-10------------------------10--------------------------------
-/7-9-10-7----------------12--12b14-12-10-----10----10/12--12--12-10-9-9--9b109-7--
-------------------------------------------12--------------------------------------
-----------------------------------------------------------------------------------
-----------------------------------------------------------------------------------

-----------------------------------------------10------10------10--------12-----12-
-------8/10-8----------8-10b11--10-8-----------------------------------------------
-----7---------------9---------------10h12-10------10------10------10/12-----12----
-7-8------------8-10---------------------------------------------------------------
-----------------------------------------------------------------------------------
-----------------------------------------------------------------------------------

----12-----12-----12-------20-----20-----20----------------------------------------
-----------------------/17-----17-----17-------------------------------------------
-12-----12-----12------------------------------------------------------------------
-----------------------------------------------------------------------------------
-----------------------------------------------------------------------------------
-----------------------------------------------------------------------------------



Transcribed by,
tsunvun86

http://tsunvun86.wordpress.com/2011/08/20/scandal-burn-chords-tabs/


_________________________________________________________________________________________________
Back to top Go down