Kimi ni Shitto Chuu Guitar Chords & Tab
Posted on Fri Aug 19, 2011 5:22 am


Jibba

Mainstream Artist
Mainstream Artist
http://www.youtube.com/user/xJibba?feature=mhee
You thanked this post! -
Thanks received by this post:

Message reputation : 100% (1 vote)

Text for Notepad
Spoiler:
Kimi ni Shitto Chuu
SCANDAL (Love Survive)
~Tabbed by Jibba
~SCANDAL HEAVEN

Chords
Intro
Bm

Verse
Bm
A
Bm
D A

Intro
Bm

Verse
Bm G E A
Bm G E A Gb/Bb

Pre-Chorus
E Bm
G D Bm
E Bm
A G Db Gb


Chorus
G D A Bm
G D A Bm
G D A Bm
G D C Gb Bm

Breakdown
Bm

Verse x 1
Prechorus x 1

Breakdown
Bm

Solo
Bm

Chorus x 2

_______

Riffs
_______

Intro
--------------------------|--------------------------|--------------------------|
--------------------------|--------------------------|--------------------------|
--------------------------|--------------------------|--------------------------|
--------------4--2--------|--------------4--2--------|--------------4--2--------|
--2--2--5--2--------5--2--|-----2--5--2--------5--2--|-----2--5--2--------5--2--|
--------------------------|--------------------------|--------------------------|

Pre-Chorus
H
--7--------------------------7-------------------------------------------------------------------
---------8--------------------------8------------x--x--7-----7--------7-------7--x---7--7-----7--
----------------9------------------------9-------x--x--7-----7--------7-------7--x---7--7-----7--
-------------------------------------------------x--x--9-----9--------9-------9--x---9--9-----9--
-------------------------------------------------------------------------------------------------
-------------------------------------------------------------------------------------------------

---------7------------------10-----7-------------------------------------------------------------
----------------7-----------------------7--------x--x--7-----7--------7-------7--x---7--7-----7--
-------------------------------------------------x--x--7-----7--------7-------7--x---7--7-----7--
--9----------------------------------------------x--x--9-----9--------9-------9--x---9--9-----9--
-------------------------------------------------------------------------------------------------
-------------------------------------------------------------------------------------------------

Repeat

--10------7------------------10-----7--------12-12-12-12-12-12-12-14------------------------------
----------------7---------------------------------------------------------------------------------
--------------------------------------------------------------------------------------------------
--------------------------------------------------------------------------------------------------
--------------------------------------------------------------------------------------------------
--------------------------------------------------------------------------------------------------

Breakdown
------------------------
--12-12--15-------------
--14b16~~16------------- x 8
------------------------
------------------------
------------------------

Songster: http://www.songsterr.com/a/wa/song?id=84287
Guitar Pro: http://www.mediafire.com/?fuh0mjl80mbsw8w & Old Version with a rough solo

The solo in this song is a lot of guitar noises more so than notes, if you plan on performing this song, I'd advise just on an improvised solo rather than meticulously trying to mimic the song (which obviously I can't do either :3).

Have fun!



Last edited by Jibba on Fri Aug 19, 2011 11:19 pm; edited 2 times in total

Back to top Go down

Re: Kimi ni Shitto Chuu Guitar Chords & Tab
Posted on Fri Aug 19, 2011 6:40 am


Aosaru

International Performer
International Performer
Thank you Jibba!
I'm glad you put it on songsterr. I don't have guitar pro and I don't really know where to find it free either.


_________________________________________________________________________________________________
Back to top Go down

Re: Kimi ni Shitto Chuu Guitar Chords & Tab
Posted on Fri Aug 19, 2011 8:11 am


stargayzer

Caless Student
Caless Student
Thank you very much for this, Brilliant

Back to top Go down

Re: Kimi ni Shitto Chuu Guitar Chords & Tab
Posted on Fri Aug 19, 2011 7:27 pm


phoenixnumber1

Shiroten Performer
Shiroten Performer
Hi, thanks for this!
I used the V1 file and the bass from this to create a V3 if you will as I retabbed the drums as the original wasn't quite right. Don't know if it's useful as there don't seem to be that many drummers on SH but here:

http://www.mediafire.com/?fuh0mjl80mbsw8w

Kimi ni Shitto Chuu with Lead and Rhythm Guitar, Bass and corrected Drums.
Credit to Jibba and myself.
Hi

Back to top Go down

Re: Kimi ni Shitto Chuu Guitar Chords & Tab
Posted on Fri Aug 19, 2011 11:15 pm


Jibba

Mainstream Artist
Mainstream Artist
http://www.youtube.com/user/xJibba?feature=mhee
Good Job on the drums!
I"m no drummer so I always just put in the basic drumbeat to keep the song flowing.
(I'll update my links above)

Back to top Go down

Re: Kimi ni Shitto Chuu Guitar Chords & Tab
Posted on Tue Feb 12, 2013 4:08 pm


AnaInvento

Mainstream Artist
Mainstream Artist
Aosaru wrote:Thank you Jibba!
I'm glad you put it on songsterr. I don't have guitar pro and I don't really know where to find it free either.

Here's a link for you to download Guitar Pro 5.2 Happy But I don't think it's a full version. HOpe this helps. Smile
http://www.4shared.com/dir/4901562/c97e3c7c/Guitar_Pro_52_Full__serial.html

@topic: Thanks for the tabs! You're an early bird. Hahaha! Good thing you made it at an early time. Perfect! xD


_________________________________________________________________________________________________
Back to top Go down

Re: Kimi ni Shitto Chuu Guitar Chords & Tab
Posted on Sun Feb 24, 2013 4:20 pm


Andika

SPAMMER
SPAMMER
Nice One nice sankyu

Back to top Go down