Scandal Hikare bass tabs
Posted on Tue Aug 30, 2011 10:03 am


Neyodemos

Shiroten Performer
Shiroten Performer
http://www.youtube.com/user/Neyodemos
You thanked this post! -
Thanks received by this post:

Message reputation : 100% (1 vote)

Hey. For all of bass and Scandal lovers, here it is the bass tabs of ひかれ[Hikare]. Have fun playing it.
This is my first time posting a tab, so feel free to tell me if there's something wrong. I played this song by ear and had a bit of an assistance of a cover of Mikan in youtube. UHUH!




Copy it to a Notebook to see it better:
Spoiler:
0:44
|--------------------------------------------|
|--------------------------------------------|
|-3-3-3-5-5-7-77--5(x4)-3(x3)--3(x4)-5-5-777-|
|--------------------------------------------|

|---------------------------------------------|
|---------------------------------------------|
|-5(x4)-3(x3)--3(x7)-1/9----------------------|
|-------------------------5(x8)--9(x8)--5(x8)-|

|---------------------------------------|
|---------------------------------------|
|----------------------------6-6-5(x16)-|
|-7-7-7-7-7777-7\1/9-0(x13?)------------|

|--------------------------|
|---------------------9--9-|
|--------------------------|
|-5(x15?)-455-7(x10)-7--7--|

|---------------------------------------------------------------|
|---------------------------------------------------------------|
|--------------0/7-7(x8)-65-5(x12)------------------------------|
|-7\1/9-0(x10)---------------------5(x15)-455-7(x8)-7/14-14(x6)-|

|-------------9----9---7---5-|
|------------7----7---7---5--|
|-----------5---55---5---3---|
|-5(x4)-5\0------------------|

|----5-----7----9----9---7---5----5-----7-----9----9---7---5-|
|--------------9----7---7---5----------------9----7---7---5--|
|-0-3---3-5--57---55---5---3---0-3---3-5---57---55---5---3---|
|------------------------------------------------------------|

|----5-----7----9----9---7---5------------|
|--------------9----7---7---5-------------|
|-0-3---3-5--57---55---5---3---0-3-0/12\7-|
|-----------------------------------------|

|---9----9---7---5----5-----7-----9----9---7---5-|
|--9----7---7---5----------------9----7---7---5--|
|-7---55---5---3---0-3---3-5---57---55---5---3---|
|------------------------------------------------|

|---------------------------------7/14--14(x4)--16(x4)--16--------------|
|--------------------------7(x4)-------------------------16-------------|
|-3(x8)-3/9-----------------------------------------------15-\0---------|
|------------5(x8)--9(x8)----------------------------------------0/12\0-|

|--------------------------------------------|
|--------------------------------------9---9-|
|---------6-5(x14)---------------------------|
|-0(x16)------------5(x14)-45-7(x10)--7---7--|

|------------------------------------------------------------------|
|------------------------------------------------------------------|
|------------0/7-7(x8)-65-5(x15)-----------------------------------|
|-7\0-0(x10)----------------------5(x9)-45-5(x6)-45-5-7(x8)/14(x8)-|

|-------------------------------------------|
|-------------------------------------------|
|-------------------------------------------|
|-5(x5)\0-0(x16?)-5(x15)-9(x16)-7(x14)\0/12-|

|---------------------------------------|
|----------------------------------9--9-|
|--------655-5(x15)---------------------|
|-0(x14)------------5(x14)-7(x10)-7--7--|

|------------------------------------------------------------------|
|------------------------------------------------------------------|
|-------------0/7(x8)-65-5(x16)------------------------------------|
|-7\0/9-0(x8)-------------------5(x9)-45-5(x6)-45-5-7(x8)/14(x8)\0-|

|-----------9----9---7---5----5-----7-----9----9---7---5----5---------|
|----------7----7---7---5----------------9----7---7---5---------------|
|---------5---55---5---3---0-3---3-5---57---55---5---3---0-3---555555-|
|-5(x5)\0-------------------------------------------------------------|
So enjoy, and feel free to express your opinion. Cool Walk

Neyodemos



Last edited by Neyodemos on Sat Oct 29, 2011 9:10 pm; edited 3 times in total (Reason for editing : wrong riff in the tabs)

Back to top Go down

Re: Scandal Hikare bass tabs
Posted on Sat Sep 15, 2012 7:16 am


shokizuki

Caless Student
Caless Student
Thanks for the tab! I was looking for this! Will try to play this along with my bandmates ^_^

Back to top Go down

Re: Scandal Hikare bass tabs
Posted on Fri Jun 06, 2014 7:10 pm


waning_moon

Indie Artist
Indie Artist
I'm using a mac and I only have a Notepad but when I paste it on, the structure is still the same =\

Is there any way you could post the tab in a PDF or on another site?

Back to top Go down

Re: Scandal Hikare bass tabs
Posted on Sat Jun 07, 2014 12:42 am


syakmp

Mainstream Artist
Mainstream Artist
^^ Try pastebin online or one of those online note thingys? I have a mac too so I feel your pain, haha. XD


_________________________________________________________________________________________________
Love SCANDAL!!  LOVE
Back to top Go down

Re: Scandal Hikare bass tabs
Posted on Mon Aug 04, 2014 4:49 am


waning_moon

Indie Artist
Indie Artist
^ thanks! I'll try that haha.

Back to top Go down