HARUKAZE [Chords & Tabs]
Posted on Wed Oct 12, 2011 1:10 pm


tsunvun86

Indie Artist
Indie Artist
http://tsunvun86.wordpress.com/
You thanked this post! -
Thanks received by this post:

Message reputation : 100% (8 votes)

**Paste into Notepad for original spacing.

HARUKAZE [Chords & Tabs]


Code:

SCANDAL - HARUKAZE

Intro:
E B C#m C#m
A B C#m C#m

Verse:
E B C#m C#m )
A B C#m C#m } (x2)

Pre-Chorus:
A B C#m E (x3)
A A B B

Chorus:
A B C#m E
A B C#m C#m
A B G#m C#m
A B C#m E
A A B B

Instrumental:
E B C#m C#m
A B C#m C#m

repeat Verse

repeat Pre-Chorus

repeat Chorus

Bridge:

A A G#m G#m )
A A B C#m  } (x2)

Solo:
A A G#m G#m
A A B B

Chorus 2:
A B C#m E  )
A B C#m C#m } (x2)
A B G#m C#m
A B C#m E
A A B B

Outro:
E B C#m C#m
A B C#m C#m
E


Intro/Chorus:
-----------------------------------------------------------------
-7h9-7-------7h9-7---------------7h9-7-------7h9-7---------------
-------9-8---------9-8---6---9---------9-8---------9-8---6---8h9-
-----------9-----------9---9---------------9-----------9---9----- (x2)
-----------------------------------------------------------------
-----------------------------------------------------------------

Verse (2nd repetition):
 E            B              C#m7        C#m7
---------------------------------------------------------
-------9-------------9-------------9------------12-------
---9------9-----11------11-----9------9-----9-------9----
-9---9--------9----9---------9---9--------9---9----------
---------------------------------------------------------
---------------------------------------------------------
 Amaj7          B            C#m7        C#m7
----------------------7----------------------------------
---------9-------------------------9------------12-------
----9-------9-----8------8-----9------9-----9-------9----
-11---11--------9---9--------9---9--------9---9----------
---------------------------------------------------------
---------------------------------------------------------

Pre-Chorus:
 A            B            C#m          E
---------------------------------------------------------
-------9-------------9-------------9-------------10-9----
---9------10-----9------10-----9------10-----9-----------
-9---9---------9---9---------9---9---------9---9---------
---------------------------------------------------------
---------------------------------------------------------

 A            B            C#m          E
---------------------------------------------------------
-------9-------------9-------------9-------12-10-9-------
---9------10-----9------10-----9------10-----------9-----
-9---9---------9---9---------9---9-----------------------
---------------------------------------------------------
---------------------------------------------------------

 A            B            C#m            E
--------------------7------------------------------------
-------9---------------------------9-----------------9---
---9------9-----9------8------9-------9-----9---9-10---9-
-9---9--------9---9--------10---10--------9---9----------
---------------------------------------------------------
---------------------------------------------------------
 A                      B
------------------------7--7------7-7-7-7----------------
-----10-----9-----------7---------7-7-7-7----------------
---------9-----9--------8-----8---8-8-8-8----------------
-11---------------11-------------------------------------
---------------------------------------------------------
---------------------------------------------------------



Transcribed by,
tsunvun86



Last edited by tsunvun86 on Thu Jan 26, 2012 2:12 am; edited 5 times in total


_________________________________________________________________________________________________
Back to top Go down

Re: HARUKAZE [Chords & Tabs]
Posted on Tue Oct 18, 2011 11:35 am


ILYRina-chan

Shiroten Performer
Shiroten Performer
Wah! Sugoi! Omae wa!

You did this by ear? That's so fast! Clap

Thank you for the awesome tabs for Harukaze! Hope the single releases soon!

-------------------------------------------------------------------------------------------------------------------


_________________________________________________________________________________________________
"Do not lose your composure...
Do not break your stance...
Stretch out your awareness...
And do not let your guard down for even a second."
+Ulquiorra Schiffer+
Back to top Go down

Re: HARUKAZE [Chords & Tabs]
Posted on Tue Oct 18, 2011 6:37 pm


ll01

Caless Student
Caless Student
are these power open or bar cords sorry a bit of a noob question

Back to top Go down

Re: HARUKAZE [Chords & Tabs]
Posted on Fri Dec 16, 2011 6:17 am


g2xian

Caless Student
Caless Student
i tink its easier to see tabs than chords for newbie like me =X

Back to top Go down

Re: HARUKAZE [Chords & Tabs]
Posted on Wed Jan 04, 2012 7:32 am


KyorukiNimawa

Caless Student
Caless Student
Neee~

Thanks
can you make the cover video too please Smile


_________________________________________________________________________________________________

they can make your day complete
GO MAMI! LOVE IKU ZE MAMI CHAN! Clap
Back to top Go down

Re: HARUKAZE [Chords & Tabs]
Posted on Wed Jan 11, 2012 2:34 pm


tsunvun86

Indie Artist
Indie Artist
http://tsunvun86.wordpress.com/
Added full chords in first post. Sorry about the hand writting. Am on holidays at the moment thus the crude method of writting chords down.


_________________________________________________________________________________________________
Back to top Go down

Re: HARUKAZE [Chords & Tabs]
Posted on Thu Feb 09, 2012 11:23 am


Kunikosanjo

Caless Student
Caless Student
is this available on Bass ?

Back to top Go down

Re: HARUKAZE [Chords & Tabs]
Posted on Thu Feb 09, 2012 8:41 pm


Noodles

Global Moderator
Global Moderator
http://atarashiimusic.com
The hand-written version helps me play it better, thanks man :D


_________________________________________________________________________________________________
Back to top Go down

Re: HARUKAZE [Chords & Tabs]
Posted on Tue Feb 14, 2012 1:42 pm


ll01

Caless Student
Caless Student
has anyone got the lead tabs as well

Back to top Go down

Re: HARUKAZE [Chords & Tabs]
Posted on Tue Feb 14, 2012 4:20 pm


Dex

Mainstream Artist
Mainstream Artist
as expected to tsun-sama... thank you very much... Nice One

Back to top Go down

Re: HARUKAZE [Chords & Tabs]
Posted on Fri Feb 24, 2012 11:30 am


ichiiru-kun

Caless Student
Caless Student
You thanked this post! -
Thanks received by this post:

Message reputation : 100% (1 vote)

http://vimeo.com/37424188

Code:
just tabbed the instrumental part the and solo part.


Slide = /

instrumental

E----------------------------------------------------
B----------------------------------------------------
G---11-11-11----11-/-9---9-/-13-13-13-/-11-11--9-9---
D----------------------------------------------------
A---9--9--9-----9--/-7---7-/-11-11-11-/-9--9---7-7---
E----------------------------------------------------


E---------------------------------------------------------
B---------------------------------------------------------
G---11-11-11-----11-/-9---9-/-16-16-16-/-11-11-11-/-13-13-
D---------------------------------------------------------
A---9--9--9------9--/-7---7-/-14-14-14-/-9--9--9--/-11-11-
E---------------------------------------------------------


E---------------------------------------------------------------------------
B---------------------------------------------------------------------------
G---11-11-11-----11-/-9---9-/-13-13-13-/-11-11---9-9-----9-9-9-/-8---8--9---
D---------------------------------------------------------------------------
A---9--9--9------9--/-7---7-/-11-11-11-/-9--9----7-7-----7-7-7-/-6---6--7---
E---------------------------------------------------------------------------





SOLO

E--12-12-14-12-16-14-12-11----11-11-12-11-14-12-11-12------------
G----------------------------------------------------------------
G----------------------------------------------------------------
D----------------------------------------------------------------
A----------------------------------------------------------------
E----------------------------------------------------------------


E-----------11-------11-12---11-12-14----12-14-----14-14-14-/-18---14-14---14-14-14-/-18---
B--14-12-14-------14-----------------------------------------------------------------------
G--------------------------------------------------11-11-11-/-15---11-11---11-11-11-/-15---
D------------------------------------------------------------------------------------------
A------------------------------------------------------------------------------------------
E------------------------------------------------------------------------------------------



Last edited by ichiiru-kun on Sun Feb 26, 2012 12:07 am; edited 3 times in total

Back to top Go down

Re: HARUKAZE [Chords & Tabs]
Posted on Sat Feb 25, 2012 9:01 am


Faramir

Caless Student
Caless Student
Thanks so much! You guys on this site have helpped me learn the girls songs so well! Happy

Back to top Go down

Re: HARUKAZE [Chords & Tabs]
Posted on Sat Feb 25, 2012 11:25 am


Aosaru

International Performer
International Performer
Thanks for posting the solo tabs ichiiru-kun. That's the only part I had left to learn.
Your video has been taken down though...if you upload it again, I would recommend not putting 'Harukaze' and/or 'SCANDAL' as the name of the video. You could change the settings of the video to 'unlisted.'


_________________________________________________________________________________________________
Back to top Go down

Re: HARUKAZE [Chords & Tabs]
Posted on Sat Feb 25, 2012 12:06 pm


ichiiru-kun

Caless Student
Caless Student
KoiMoyou wrote:Thanks for posting the solo tabs ichiiru-kun. That's the only part I had left to learn.
Your video has been taken down though...if you upload it again, I would recommend not putting 'Harukaze' and/or 'SCANDAL' as the name of the video. You could change the settings of the video to 'unlisted.'

no, its not down... I just couldn't make the video "unlisted", bcoz its blocked in some other country that why the "unlisted" option is not available.. I'll just reupload it in Vimeo.. :D

Edit:
uploaded in VIMEO: http://vimeo.com/37424188

Back to top Go down

Re: HARUKAZE [Chords & Tabs]
Posted on Tue Feb 28, 2012 6:47 am


kirei_kawaii^-^

Shiroten Performer
Shiroten Performer
Can someone please upload a tab pro of Harukaze on www.ultimate-guitar.com please? Bcoz I have trouble reading the guitar tabs. Like for example, I don't know how to play E B C#m C#m and A B C#m C#m. I learn better with a video example. Please? I really wanna learn how to play this song. I'm trying to teach myself how to play the guitar.

Back to top Go down

Re: HARUKAZE [Chords & Tabs]
Posted on Thu Mar 01, 2012 7:40 am


Aosaru

International Performer
International Performer
You thanked this post! -
Thanks received by this post:

Message reputation : 100% (2 votes)

@kirei_kawaii^-^
You can use this website(It will be easier to learn songs if you learn a few chords):
http://www.guitarchordsmagic.com/guitar-chord-charts/guitar-chord-chart-power.html


_________________________________________________________________________________________________
Back to top Go down

Re: HARUKAZE [Chords & Tabs]
Posted on Thu Mar 01, 2012 9:15 am


kyoharu03

International Performer
International Performer
Kunikosanjo wrote:is this available on Bass ?


yeahh..is there an available bass tab for this?


_________________________________________________________________________________________________

haru-chan wa ichiban da!boku no megami desu!

Back to top Go down

Re: HARUKAZE [Chords & Tabs]
Posted on Thu Mar 01, 2012 10:12 am


ILYRina-chan

Shiroten Performer
Shiroten Performer
You thanked this post! -
Thanks received by this post:

Message reputation : 100% (1 vote)

http://www.songsterr.com/a/wsa/scandal-harukaze-bleach-op-15-guitar-tab-s85843t1

Burnquist1 made the tabs. Found on songsterr.com

http://www.youtube.com/watch?v=7kNxhZtjitQ

You can watch the cover on youtube!


_________________________________________________________________________________________________
"Do not lose your composure...
Do not break your stance...
Stretch out your awareness...
And do not let your guard down for even a second."
+Ulquiorra Schiffer+
Back to top Go down

Re: HARUKAZE [Chords & Tabs]
Posted on Thu Mar 08, 2012 6:17 am


kyoharu03

International Performer
International Performer
hmm.. is there any full version for harukaze bass tabs?


_________________________________________________________________________________________________

haru-chan wa ichiban da!boku no megami desu!

Back to top Go down

Re: HARUKAZE [Chords & Tabs]
Posted on Thu Mar 08, 2012 4:56 pm


GavinD

Caless Student
Caless Student
http://www.soundcloud.com/underyourbedhohoho
kyoharu03 wrote:hmm.. is there any full version for harukaze bass tabs?

I've transcribed all the parts for both guitars and bass , i'll tab it down if you need it


_________________________________________________________________________________________________


Back to top Go down

Re: HARUKAZE [Chords & Tabs]
Posted on Thu Mar 08, 2012 11:01 pm


kirei_kawaii^-^

Shiroten Performer
Shiroten Performer
kyoharu03 wrote:I've transcribed all the parts for both guitars and bass , i'll tab it down if you need it

Please do. Clap I'd really like to see the regular guitar tabs for the whole song. I've seen the tabs using guitar pro, but I can't even print those tabs & I have no interenet at home. I would really appreciate it. LOVE

Back to top Go down

Re: HARUKAZE [Chords & Tabs]
Posted on Fri Mar 09, 2012 3:51 am


GavinD

Caless Student
Caless Student
http://www.soundcloud.com/underyourbedhohoho
kirei_kawaii^-^ wrote:
kyoharu03 wrote:I've transcribed all the parts for both guitars and bass , i'll tab it down if you need it

Please do. Clap I'd really like to see the regular guitar tabs for the whole song. I've seen the tabs using guitar pro, but I can't even print those tabs & I have no interenet at home. I would really appreciate it. LOVE

tsun's got most of the guitar parts tabbed out already

Here's the bass tab for HARUKAZE . Forgive me for all the stupid mistakes i've made , i'm not a bassist Whistle but the gist is there .

Code:
Intro

-----------------------------------------------------------------------
-----------------------------------------------------------------------
------------------------2-2-2-2-2-2-2-2-4-4-4-4-4-4-4-4-4-4-4-4-4-4-4-4
-x-x-x--0-0-0-0-0-0-0-0------------------------------------------------

-----------------------------------------------------------------------
-----------------------------------------------------------------------
-0-0-0-0-0-0-0-0-2-2-2-2-2-2-2-2-4-4-4-4-4-4-4-4-4-4-4-4-4-4-4-4-------
-----------------------------------------------------------------------



Verse
x2

-----------------------------------------------------------------------
-----------------------------------------------------------------------
------------------2--2-2-2-2-4-2---4--4-4-4-4-4-4-4-4-4-4-4-4-4-4------
-0--0-0-0-0-0-0--------------------------------------------------------

-----------------------------------------------------------------------
-----------------------------------------------------------------------
-0--0-0-0-0-0-0---2--2-2-2-2-4-2---4--4-4-4-4-4-4-4-4-4-4-4-4-4-4------
-----------------------------------------------------------------------



Pre-Chorus

-----------------------------------------------------------------------
-----------------------------------------------------------------------
-0-0-0-0-0-0-0-0-2-2-2-2-2-2-2-2-4-4-4-4-4-4-4-4-7-7-7-7-7-7-7-7-------
-----------------------------------------------------------------------

-----------------------------------------------------------------------
-----------------------------------------------------------------------
-0-0-0-0-0-0-0-0-2-2-2-2-2-2-2-2-4-4-4-4-4-4-4-4-----------------------
-------------------------------------------------7-5-4-0--0-0-0--------

-----------------------------------------------------------------------
-----------------------------------------------------------------------
-0--0-0-0-0-0-0---2--2-2-2-2-2-2---4--4-4-4-4-4-4---7--7-7-7-7-7-7-----
-----------------------------------------------------------------------

-----------------------------------------------------------------------
-----------------------------------------------------------------------
-0-0-0-0-0-0-0-0-0-0-0-0-0-0-0-0-2-2-2-2-2-2-2-2-2-2-2-----------------
-----------------------------------------------------------------------




Chorus

-----------------------------------------------------------------------
-----------------------------------------------------------------------
-0-0-0-0-0-0-0-0-2-2-2-2-2-2-2-2-4-4-4-4-4-4-4-4-7-7-7-7-7-7-7-7-------
-----------------------------------------------------------------------

-----------------------------------------------------------------------
-----------------------------------------------------------------------
-0-0-0-0-0-0-0-0-2-2-2-2-2-2-3-3-4-4-4-4-4-4-4-4-4-4-4-4-4-4-4-4-------
-----------------------------------------------------------------------

-----------------------------------------------------------------------
-----------------------------------------------------------------------
-0-0-0-0-0-0-0-0-2-2-2-2-2-2-2-2-----------------4-4-4-4-4-4-4-4-------
---------------------------------4-4-4-4-4-4-4-4-----------------------

-----------------------------------------------------------------------
-----------------------------------------------------------------------
-0-0-0-0-0-0-0-0-2-2-2-2-2-2-3-3-4-4-4-4-4-4-4-4-7-7-7-7-7-7-7-7-------
-----------------------------------------------------------------------

-----------------------------------------------------------------------
-----------------------------------------------------------------------
-0--0-0--0-0-0-0--0-0--0-0-0---2--2-2--2-2-2-2-------------------------
-----------------------------------------------------------------------

Repeat intro




Verse 2

-----------------------------------------------------------------------
-----------------------------------------------------------------------
----2~--2-4-4~--2--4--3-2-1---------------4~---------------------------
-0~-------------------------5~--4-5-7--0-------------------------------

-----------------------------------------------------------------------
-----------------------------------------------------------------------
------------------2--2-2-2-2-4-2---4--4-4-4-4-4-4-4-4-4-4-4-4-4-4------
-0--0-0-0-0-0-0--------------------------------------------------------

-----------------------------------------------------------------------
-----------------------------------------------------------------------
-0--0-0-0-0-0-0---2--2-2-2-2-4-2---4--4-4-4-4-4-4-4-4-4-4-4-4-4-4------
-----------------------------------------------------------------------

Repeat pre chorus

Repeat chorus



Guitar solo

-----------------------------------------------------------------------
-----------------------------------------------------------------------
-----------------------------------------------------------------------
-5-5-5---5--5-5----4-4-4---4--4-4----5-5-5---5--5-5----7-7-7-5--7--9--- x2

-----------------------------------------------------------------------
-----------------------------------------------------------------------
-----------------------------------------------------------------------
-5-5-5-5-5-5-5-5-5-5-5-5-5-5-5-5-4-4-4-4-4-4-4-4-4-4-4-9--4-5-0--------

-----------------------------------------------------------------------
-----------------------------------------------------------------------
-----------------------------------------------------------------------
-5-5-5-5-5-5-5-5-5-5-5-5-5-5-5-5---7-7--7-7--7--7-7--------------------




That little breakdown after the solo


-----------------------------------------------------------------------
---------6--4--2-------------------------------------------------------
-0--4-2-----------2-----0--2--3-4--------------------------------------
---------------------4-------------------------------------------------

Repeat chorus

Repeat intro

End on E


_________________________________________________________________________________________________


Back to top Go down

Re: HARUKAZE [Chords & Tabs]
Posted on Sat Mar 10, 2012 8:14 am


kyoharu03

International Performer
International Performer

@GavinD: o~kay..thanks bro..i'll use this as a basis for my harukaze bass cover XD


_________________________________________________________________________________________________

haru-chan wa ichiban da!boku no megami desu!

Back to top Go down

Re: HARUKAZE [Chords & Tabs]
Posted on Thu Apr 05, 2012 11:10 am


UYL

Shiroten Performer
Shiroten Performer
Clap Clap Clap tsunvun! here you are! ultiYUIlover from YL! you're such a music genius!


_________________________________________________________________________________________________
People who misunderstand my fascination to Japanese Music are no different to those who really don't understand that MUSIC is a UNIVERSAL language.



Men 7900 lp battle damage received but in my turn? Cool
OTK! I drained 8000 before the BP comes! GG
Tsk Tsk Tsk
Back to top Go down

Re: HARUKAZE [Chords & Tabs]
Posted on Fri Apr 06, 2012 1:04 pm


lil_ishimaru

Caless Student
Caless Student
Clap Great!!

Back to top Go down