rock 'n'roll widow guitar tab request please
Posted on Tue Oct 18, 2011 6:45 pm


ll01

Caless Student
Caless Student
it would be much appreciated Happy

Back to top Go down

Re: rock 'n'roll widow guitar tab request please
Posted on Sun Mar 04, 2012 3:10 pm


axlmillia

Caless Student
Caless Student
http://sunburstyellow.tumblr.com
You thanked this post! -
Thanks received by this post:

Message reputation : 100% (2 votes)

from the original song by Yamaguchi Momoe, it's:
D7
G7 D7
D7
G7 D7 and so on..

SCANDAL's version is up 2 keys, so here it is:

Verse:
Em7
Am7 Em7
Em7
Am7 Em7

Refrain:
Bm7
Am7
Bm7

Kakko kakko... part:
Am7
Am7
Am7
Bm7 Em7 Bm7

Chorus:
Em7
Em7
D7
C7 Bm7 Em7

Verse:
Em7
Am7 Em7
Em7
Am7 Em7

Refrain:
Bm7
Am7
Bm7

Kakko kakko... part:
Am7
Am7
Am7
Bm7 Em7 Bm7

[RIFF~][sorry, I can't figure out the riff part, but I'm guessing it's the same as the chorus part]

Kakko kakko... part:
Am7
Am7
Am7
Bm7 Em7 Bm7

Chorus:
Em7
Em7
D7
C7 Bm7 Em7
(repeat chorus)

Sorry I can only do the chords, I can't transcribe the tabs, and also, if any of you has noticed any corrections, please do correct. I'm below beginner in these kinds of things. Thanks! :D



Last edited by axlmillia on Sun Jul 15, 2012 3:29 pm; edited 2 times in total (Reason for editing : incomplete sentence)


_________________________________________________________________________________________________
Back to top Go down

Re: rock 'n'roll widow guitar tab request please
Posted on Sun Mar 04, 2012 3:20 pm


Reachie

Mainstream Artist
Mainstream Artist
Wow, the live performance of that song must have started a huge wave xD
Not to spam or anything, I just noticed XD

EDIT:
Noticed that topic was created 2011. But still.
And now I kinda wanna play it with the tab. Or chords XD


_________________________________________________________________________________________________
Back to top Go down

Re: rock 'n'roll widow guitar tab request please
Posted on Mon Mar 05, 2012 5:27 pm


ll01

Caless Student
Caless Student
Thanks

Back to top Go down

Re: rock 'n'roll widow guitar tab request please
Posted on Thu Jan 31, 2013 8:13 pm


souichiro-san

Caless Student
Caless Student
Please,do a gp5 tab from this

Back to top Go down

Re: rock 'n'roll widow guitar tab request please
Posted on Wed Dec 25, 2013 7:21 pm


chiyai

Caless Student
Caless Student
I made a tab for this, there are somethings I'm not sure about like the second pre-chorus and the ending.

I didn't include all the strumming so gotta play along with the song.

Spoiler:
SCANDAL - Rock 'N Roll Widow

Intro:
-----------------------------------
-----------------------------------
-----------------------------------
--9--11-11--9-9-9--11--9-9--9-9----
-----------------------------------
--7--9--9---7-7-7--9---7-7--7-7----
-----------------------------------

Verse 1:
--------------------------------------------------------------------------------------------------------
--------------------------------------------------------------------------------------------------------
--------------------------------------------------------------------------------------------------------
--------------------------------------------------------------------------------------------------------
----9-9-------9------------9-9-------9------------7-7-------7------------9-9-------9--------------------
--7-----7-7-7---7-7--7-7-7-----7-7-7---7-7--7-7-7-----7-7-7---7-7--7-7-7-----7-7-7---7-7--7-7-7---------
--------------------------------------------------------------------------------------------------------

---------------------------------------
---------------------------------------
--[9]------[12]-----\---[14]-----[9]---
--[x]------[x]- x3--\---[x]------[x]---
--[7]------[10]-----\---[12]-----[7]---
---------------------------------------

Pre-chorus:
-----------------------------------
-----------------------------------
-----------------------------------
--9-7-9-7-----7-9------------------
----------7-9----------------------
-----------------------------------

-----------------------------------
-----------------------------------
-----------------------------------
--7-5-7-5-----5-7------------------
----------5-7----------------------
-----------------------------------

--------------------------------------
---------------------------------[10]-
---------------------------------[x]--
--9-7-9-7-----7-9----------------[7]--
----------7-9-------------------------
--------------------------------------

-----------------------------------
---10--------------------------------
---x--------------------------------
---7--------------------------------
-----------------------------------
-----------------------------------  

B Bb A G E

Chorus:
-----------------------------------
-----------------------------------
--9--11-11-9-9-9--12--11-11--11-11-
-----------------------------------
--7--9--9--7-7-7--10--9--9---9--9--
-----------------------------------

D C B

Intro:
-----------------------------------
-----------------------------------
-----------------------------------
--9--11-11--9-9-9--11--9-9--9-9----
-----------------------------------
--7--9--9---7-7-7--9---7-7--7-7----
-----------------------------------

Verse 2:
-----------------------------------
-----------------------------------
--[9]------[12]-----\---[14]-----[9]-
--[x]------[x]- x3--\---[x]------[x]-       x2
--[7]------[10]-----\---[12]-----[7]-
-----------------------------------

Pre-chorus:
(I can't really hear the first part so I just play this palm mute)
-----------------------------------
-----------------------------------
-----------------------------------
--9-7-9-7-----7-9------------------
----------7-9----------------------
-----------------------------------

-----------------------------------
-----------------------------------
-----------------------------------
--7-5-7-5-----5-7------------------
----------5-7----------------------
-----------------------------------

--------------------------------------
---------------------------------[10]-
---------------------------------[x]--
--9-7-9-7-----7-9----------------[7]--
----------7-9-------------------------
--------------------------------------

-----------------------------------
---10------------------------------
---x-------------------------------
---7-------------------------------
-----------------------------------
----------------------------------- 

Solo:
--------------------------------------------------- 
--------------------------------------------------- 
-[-12--14--12-]----------12--12---[12--14--12]----- 
-[-12--12--12-]-x3-------12--12---[12--12--12]-x4--
--------------------------------------------------- 
--------------------------------------------------- 

E

----------------------------------- 
------------------8--9------------- 
----------------------------------- 
---9---8---7----------------------- 
--------------7-------------------- 
----------------------------------- 

------------------------------------------- 
------------------------------------------- 
--\12-\12-\12-\12-\12----------------------
---------------------------12-------------- 
------------------------14----14--12--14--- 
------------------------------------------- 

------------------------------------- 
------------------------------------- 
--\12-\12-\12-\12-\12------12-14--12-
------------------------14----------- 
------------------------------------- 
------------------------------------- 

------------------------------------------- 
------------------------------------------- 
--\12-\12-\12-\12-\12---------------------- 
---------------------------12-------------- 
------------------------14----14--12--14--- 
------------------------------------------- 

-------------------------------------------- 
-------------------------------------------- 
--\12-\12-\12-\12-\12------12-14--12~~~~~~~~
------------------------14------------------ 
--------------------------------------------
-------------------------------------------- 

Chorus:
-----------------------------------
-----------------------------------
--9--11-11-9-9-9--12--11-11--11-11-
-----------------------------------
--7--9--9--7-7-7--10--9--9---9--9--
-----------------------------------

D C B

Outro:
-----------------------------------
-----------------------------------
--9--11-11-9-9-9--12--11-11--11-11-
-----------------------------------
--7--9--9--7-7-7--10--9--9---9--9--
-----------------------------------  

Back to top Go down