Period Intro Tab [Page 1 of 1]

Period Intro Tab
Posted on Thu Feb 04, 2010 3:40 am


Noodles

Global Moderator
Global Moderator
http://atarashiimusic.com
Well this is my first small tab, and since few guys here watch FMA decided to post it here Happy

--------------------------------------------------------------------------------------------------
------------------------------9--------------------------9-------------------------------------------------------
------9--11--9--8--9------9---11--9--11---9-8----------11-9-8-6----------------------------------------------
--5/11-----------------5/11-----------------------11---------------------------------------------------------
--------------------------------------------------------------------------------------------------
--------------------------------------------------------------------------------------------------

If you wanna paste it on notepad:

--------------------------------------------------------------------------------------------------
--------------------------9------------------9-------------------------------------------------------
------9-11-9-8-9------9---11-9-11---9-8------11-9-8-6----------------------------------------------
--5/11------------5/11-------------------11---------------------------------------------------------
--------------------------------------------------------------------------------------------------
--------------------------------------------------------------------------------------------------

Its pretty easy and sounds really cool so... Enjoy it and leave comments! Clap


EDIT: If this post does not belong here I'd thank a lot a mod if he/she can move it. Thank you.


_________________________________________________________________________________________________
[You must be registered and logged in to see this image.]
Back to top Go down

Re: Period Intro Tab
Posted on Thu Feb 04, 2010 1:40 pm


yuujin_21

Administrator
Administrator
Uhm yeah i think this should be moved to somewhere else,the other Music category.


_________________________________________________________________________________________________
"Bokaru HARUNA desu!"
"Gitaa MAMI desu!"
"Beesu TOMOMI desu!"
"Doraamusu RINA desu!"
Back to top Go down

Re: Period Intro Tab
Posted on Thu Feb 04, 2010 9:19 pm


Noodles

Global Moderator
Global Moderator
http://atarashiimusic.com
Thank you Eugene, i just wasnt sure Happy


_________________________________________________________________________________________________
[You must be registered and logged in to see this image.]
Back to top Go down

Re: Period Intro Tab
Posted on Sat Feb 06, 2010 11:46 am


harunatic!

Indie Artist
Indie Artist
I like Period too, especially the intro, thanks for posting this! Nice One

Back to top Go down

Re: Period Intro Tab
Posted on Thu Mar 04, 2010 1:22 pm


~Haruna=Baby~

Indie Artist
Indie Artist
http://HarunaBaby.deviantart.com
thanks, gonna try it now!!!!
Arigato gozaimasu


_________________________________________________________________________________________________
[You must be registered and logged in to see this image.]
SCANDAL = PERFECT
Back to top Go down