SPACE RANGER Bass Tab [Page 1 of 1]

SPACE RANGER Bass Tab
Posted on Tue Feb 09, 2010 3:46 pm


porcupine_tree

Mainstream Artist
Mainstream Artist
http://chris87.multiply.com
You thanked this post! -
Thanks received by this post:

Message reputation : 100% (1 vote)

I found this here: http://forum.jphip.com/index.php?topic=21474.20
Credit to user AREHO @ jphip for the bass tab. Here it is guys:

*The song start with bass, after the space noises XD*
G|---------------------------------------------|
D<---------------------------------------------|
A|---------------------------------------------|
E|--5-7-7-7-7-7-7-7-7--------------------------| x4


*when the guitars start to play, it changes to...*

G|---------------------------------------------|
D<---------------------------------------------|
A|-----------------------5-----5-----7---------|
E|--5-7-7-7-7-7-5-7---5-7---7------------------| x4


*start to sing and keep the same secuence, repeat all the figure (x3 & x1) x4 times*

G|---------------------------------------------|
D<---------------------------------------------|
A|---------------------------------------------|
E|--5-7-7-7-7-7-7-7-7--------------------------| x3

G|---------------------------------------------|
D<---------------------------------------------|
A|-----------------------5-----5----7----------|
E|--5-7-7-7-7-7-5-7---5-7---7------------------| x1

*when tomomi says "paatyyy" and before haruna starts to sing, the last figure finish like this *

G|---------------------------------------------|
D<---------------------------------------------|
A|-----------------------------5-5-7-7-9-------|
E|--5-7-7-7-7-7-7---7-7------------------------|

*inmediatly when haruna starts to sing*

G|---------------------------------------------|
D<---------------------------------------------|
A|-7-7---------------------7-7-----------------|
E|------7-7--5-5--5-7--------7-7/10------------|

* / means to slide

*then it starts again, playing first 2 times the second figure*

G|---------------------------------------------|
D<---------------------------------------------|
A|-----------------------5-----5-----7---------|
E|--5-7-7-7-7-7-5-7---5-7---7------------------| x2


G|---------------------------------------------|
D<---------------------------------------------|
A|---------------------------------------------|
E|--5-7-7-7-7-7-7-7-7--------------------------| x3

G|---------------------------------------------|
D<---------------------------------------------|
A|-----------------------5-----5----7----------|
E|--5-7-7-7-7-7-5-7---5-7---7------------------|

*then the change is the same, but this time haruna ends and tomomi starts to sing again*

G|---------------------------------------------|
D<---------------------------------------------|
A|-----------------------------5-5-7-7-9-------|
E|--5-7-7-7-7-7-7---7-7------------------------|

G|---------------------------------------------|
D<---------------------------------------------|
A|-7-7---------------------7-7-----------------|
E|------7-7--5-5--5-7--------7-7/10------------|


*and then "nagai todoku"*

G|---------------------------------------------|
D<---------------------------------------------|
A|---------------------------------------------|
E|-10/5-5/7-7/12-12----------------------------|

G|---------------------------------------------|
D<---------------------------------------------|
A|---------------------9-11-9------------------|
E|-12/5-5/7-7/9-------------11-9-11------------|

G|---------------------------------------------|
D<---------------------------------------------|
A|---------------------------------------------|
E|-5--5/7-7/12--12/5-5/7-----------------------|

G|---------------------------------------------|
D<------------------------5------7----7--------|
A|--5-7-7-7-7-7-5-7---5-7----7-----------------|
E|---------------------------------------------| x3

G|---------------------7-9-9-7---------------|
D<--------------------------------9-7--------|
A|-------------------------------------9-7---|
E|-5-7-7-7-7-7-7-----------------------------|

*tomomi starts to sing again*

G|---------------------------------------------|
D<---------------------------------------------|
A|-----------------------5-----5----7----------|
E|--5-7-7-7-7-7-5-7---5-7---7------------------| x3


G|---------------------------------------------|
D<---------------------------------------------|
A|---------------------------------------------|
E|-5-7-7-7-7-7--7--7--7------------------------|

G|---------------------------------------------|
D<---------------------------------------------|
A|-7-7---------------------7-7-----------------|
E|------7-7--5-5--5-7--------7-7/10------------| x2 *when plays the 2nd time, the end changes to*


G|--------------------------------------------------------------------|
D<--------------------------------------------------------------------|
A|-7------------------------------------------------------------------|
E|---7-7/10-10-10-10-12-10-12-10-12-10-12-10-12-----------------------|

G|---------------------------------------------|
D<---------------------------------------------|
A|---------------------------------------------|
E|--5-7-7-7-7-7-7-7-7--------------------------| x7 *when play the 4th time repeat 7-7-7 a few more times*

*and the end*

G|---------------------------------------------|
D<---------------------------------------------|
A|---------2------------4-5-6-7----------------|
E|-0-2-4----5-4-2---------------0--------------|


*NOTE* I modified the outro because it sounded better than in the original tab. Easy to play, so aspiring bassists please enjoy! And even if you have no bass but want so badly to play this song, if you have an acoustic guitar use it! Nice One
Tanoshimi kudasai, please enjoy


_________________________________________________________________________________________________
http://www.musiccube.jp/images/goods_img/goods01_p02d.gif
Back to top Go down

Re: SPACE RANGER Bass Tab
Posted on Wed Feb 10, 2010 10:48 am


Kuro

Caless Student
Caless Student
Does acoustic reach fret 12?? lol just asking :p

Back to top Go down

Re: SPACE RANGER Bass Tab
Posted on Wed Feb 10, 2010 4:08 pm


porcupine_tree

Mainstream Artist
Mainstream Artist
http://chris87.multiply.com
Haha, yes! Acoustics have up to 21 frets, or at least my acoustic guitar does... I have to go check Pinch
But I hope you enjoy the tab Nice One


_________________________________________________________________________________________________
http://www.musiccube.jp/images/goods_img/goods01_p02d.gif
Back to top Go down

Re: SPACE RANGER Bass Tab
Posted on Sun Feb 14, 2010 5:32 am


tailsgirl59

Caless Student
Caless Student
This song,Tomomi is pretty much.
This song bass played hard. Nose Bleed

Back to top Go down

Re: SPACE RANGER Bass Tab
Posted on Sun Feb 14, 2010 6:09 pm


maboroshi

Caless Student
Caless Student
Yoyoyoyo, ima feelin' tomo-babe's power thru this rad song! XDD
thanks a bunchie porcy-baby, yuh made this boy-o jump offa da deep ending here boy! Nice One

~peace~ \o/

Back to top Go down

Re: SPACE RANGER Bass Tab
Posted on Mon Feb 15, 2010 2:06 am


feelslikedance

Shiroten Performer
Shiroten Performer
http://hiyori-fuuko.deviantart.com
Been wanting to play this song for ages! Thank you!!! :D


_________________________________________________________________________________________________
Back to top Go down

Re: SPACE RANGER Bass Tab
Posted on Mon Feb 15, 2010 8:39 pm


maboroshi

Caless Student
Caless Student
*Rockin on my bass* YEAH BABYY!! Thisa rocks da boat baby yeah!

~peace~ \o/

Back to top Go down

Re: SPACE RANGER Bass Tab
Posted on Wed Jun 30, 2010 9:36 am


felixyukito

Indie Artist
Indie Artist
http://felixyukito.blogspot.com
OMG.. this is awesome.. been looking for this for quite some time.. Hahaha.. nice one there.. *with the comments * and all..

Back to top Go down

Re: SPACE RANGER Bass Tab
Posted on Mon Jul 19, 2010 8:52 am


NAMIEis#1

Caless Student
Caless Student
*The song start with bass, after the space noises XD*

G|---------------------------------------------|
D|---------------------------------------------|
A|---------------------------------------------|
E|--5-7-7-7-7-7-5-7--7-5-7-7-5-7-7-7---------| x4

It's a lot easier to keep track if you leave out a couple of notes - I think it sounds just as good too
G|---------------------------------------------|
D|---------------------------------------------|
A|---------------------------------------------|
E|--5-7-7--7-7-5-7--7-5-7--5-7-7-7---------| x4

I bought a bass guitar last month and find the Audacity software invaluable for learning bass lines. You can bump up the pitch, slow things down and loop them. And it's FREE

Back to top Go down

Re: SPACE RANGER Bass Tab
Posted on Mon Mar 21, 2011 9:21 pm


Yedz~

Mainstream Artist
Mainstream Artist
http://www.javawakkiz.deviantart.com
ahaha....TOMO really works so hard cuz the tabs are not easy to play....by the way!~

THANK YOU FOR THE TABS!~ Praise


_________________________________________________________________________________________________


Once you've seen them they will make your WHOLE LIFE better~
Back to top Go down

Re: SPACE RANGER Bass Tab
Posted on Sun Jun 24, 2012 1:34 am


Kunikosanjo

Caless Student
Caless Student
Tomo , Your Really Awesome WTF!

Back to top Go down

Re: SPACE RANGER Bass Tab
Posted on Mon Jun 25, 2012 2:01 am


Nodivingjeff

Shiroten Performer
Shiroten Performer
Thanks for the tab! Being not only a musician, but the bass player in my band it's always fun too learn Scandal songs on bass. Then when I'm at practice just randomly start playing them. Lol

Back to top Go down