Anata Ga mawaru Chords/tabs
Posted on Tue Feb 23, 2010 2:43 pm


lamevil

Indie Artist
Indie Artist
You thanked this post! -
Thanks received by this post:

Message reputation : 100% (1 vote)

Here it goes~ my first tab! ><"

here's Tsunvun's solo~



here's mine~

*some parts the chords are diff cause this is recorded quite some time ago even b4 this tab is out~*

Anata Ga Mawaru-SCANDAL

Intro:
Am

Am Dm Em Am |
>X2
Am Dm Em Am |


Verse:
Am Dm G Am-G-Am
Am Dm G Am
Am Dm Em Am
Am Dm Em Am

Instrumental 1:
Am Dm Em Am
Am Dm Em Am

Am Dm G Am-G-Am
Am Dm G Am

Pre-Chorus:
Dm Em F Am G
Dm Em Em

Chorus:
F G Am C
F G Am C
F G Am C
Dm Em
F G

Instrumental 2:
Am

Verse 2:
Am Dm G Am-G-Am
Am Dm G Am

Solo:
Am Dm Em Am |
>X2
Am Dm Em Am |

Interlude:
(start after 4 counts of 8 straight after
haruna sings)

Dm Em Am
Dm Em F G
Em G

Chorus 2:
F G Am C |
>x4
F G Am C |

F G Am C
Dm Em
F G

Outro:
Am

Am Dm Em Am
Am Dm Em
Am


Solo tabs:
|-------------------------------------------------------------------------------5555-8888-10101010-12121212-15151515-15b17---|
|-5---5---------------5----5------------------------------------------5555-8888--------------------------------------------------------|
|-5---5---------------5----5-7-5-7b9-7b9-7b9-5---------------5555-7777------------------------------------------------------------|
|---7---7---------5h7----7---------------------7-5--5555-7777------------------------------------------------------------------------|
|-------------5h7-------------------------------------------------------------------------------------------------------------------------|
|------------------------------------------------------------------------------------------------------------------------------------------|


|-17-15------------------17-15--------------15---------------------------------------------------------------------------------------|
|------17-15-17-15----15------17-15-17-15-17-----------------------------------17h20p17h20p17h20p17h20p17h20-20b22--|
|------------------17---------------------------17--17------------17-----17-----------------------------------------------------------|
|-------------------------------------------------19--19-----17h19-----19---19-------------------------------------------------------|
|-------------------------------------------------------17h19---------------------------------------------------------------------------|
|-----------------------------------------------------------------------------------------------------------------------------------------|


tabbed by lamevil, edited by tsunvun86 @ SH

enjoy~ Nice One



Last edited by lamevil on Fri Feb 26, 2010 9:32 am; edited 4 times in total

Back to top Go down

Re: Anata Ga mawaru Chords/tabs
Posted on Wed Feb 24, 2010 10:47 am


YLenalee

Indie Artist
Indie Artist
Thanks I'll try to play !! ^^


_________________________________________________________________________________________________

....
Back to top Go down

Re: Anata Ga mawaru Chords/tabs
Posted on Wed Feb 24, 2010 4:28 pm


Kesuki

Shiroten Performer
Shiroten Performer
Thanks. will try out the tabs after my exam.

Back to top Go down

Re: Anata Ga mawaru Chords/tabs
Posted on Wed Feb 24, 2010 9:19 pm


rreizend

Mainstream Artist
Mainstream Artist
http://theflyinglemon.wordpress.com
O_O finally.. its here.. Tears of Joy thanks a lot tsunvun and lamevil.. real life savers

ps. wow the solo is easier than i thought



Last edited by rreizend on Fri Feb 26, 2010 8:29 pm; edited 1 time in total

Back to top Go down

Re: Anata Ga mawaru Chords/tabs
Posted on Fri Feb 26, 2010 9:30 am


lamevil

Indie Artist
Indie Artist
YLenalee & Kesuki: yeah~ have fun playing it XD!

rreizend: haha~ ur welcome =)

*edit: My vid is up~ but its live version ><"*

Back to top Go down

Re: Anata Ga mawaru Chords/tabs
Posted on Fri Feb 26, 2010 12:15 pm


YLenalee

Indie Artist
Indie Artist
Yeah great cover !


_________________________________________________________________________________________________

....
Back to top Go down

Re: Anata Ga mawaru Chords/tabs
Posted on Fri Feb 26, 2010 6:28 pm


yuujin_21

Administrator
Administrator
Thanks for the tab lame and tsun!


_________________________________________________________________________________________________
"Bokaru HARUNA desu!"
"Gitaa MAMI desu!"
"Beesu TOMOMI desu!"
"Doraamusu RINA desu!"
Back to top Go down

Re: Anata Ga mawaru Chords/tabs
Posted on Wed Mar 03, 2010 8:08 am


porcupine_tree

Mainstream Artist
Mainstream Artist
http://chris87.multiply.com
Wow, great tab! I've been trying to figure out how to play the solo for a long while; lamevil and tsunvun you guys are my heroes now! Thanks Nice One


_________________________________________________________________________________________________
http://www.musiccube.jp/images/goods_img/goods01_p02d.gif
Back to top Go down

Re: Anata Ga mawaru Chords/tabs
Posted on Fri May 28, 2010 2:06 pm


loudormis

Caless Student
Caless Student
i've try the tab and it sounds so identical... thanks!!

Back to top Go down

Re: Anata Ga mawaru Chords/tabs
Posted on Mon Nov 08, 2010 3:48 am


sasuke21

Caless Student
Caless Student
wow tsunvun is really great

EDIT:are there any effects used in this song



Last edited by EugeneAng on Mon Nov 08, 2010 3:52 am; edited 1 time in total (Reason for editing : Please do not double post.)

Back to top Go down

Re: Anata Ga mawaru Chords/tabs
Posted on Thu Feb 23, 2012 4:46 am


apmh

Caless Student
Caless Student
Can anyone reupload the videos?

Back to top Go down

Re: Anata Ga mawaru Chords/tabs
Posted on Tue Mar 06, 2012 9:40 am


tsunvun86

Indie Artist
Indie Artist
http://tsunvun86.wordpress.com/
You thanked this post! -
Thanks received by this post:

Message reputation : 100% (1 vote)



Sorry about the audio quality Sad


_________________________________________________________________________________________________
Back to top Go down

Re: Anata Ga mawaru Chords/tabs
Posted on Wed Jul 03, 2013 12:46 pm


Mitchan

International Performer
International Performer
http://www.wattpad.com/user/MitchanAnni
Thank You!! ~ Tears of Joy Amazing chords Love 

P.S Wish i could read tabs Cry


_________________________________________________________________________________________________

                 Tears of Joy
Back to top Go down