Sakura Goodbye Guitar Chords and Tabs
Posted on Sun Apr 29, 2012 3:22 pm


alexmontero08

Shiroten Performer
Shiroten Performer
You thanked this post! -
Thanks received by this post:

Message reputation : 100% (2 votes)

SAKURA goodbye(Guitar Chords and Tabs) by Alexander Montero(alexmontero08)
just paste this on a text document or in a spreadsheet.


Chords

Intro:
Bb Am Gm Dm F
Bb Am Gm F

Verse1:
Bb Am Gm F
Bb Am Gm F

Bb Am Gm F


Chorus:
Bb Am Gm F
Bb Am Gm F


repeat 1.Intro
2.Verse
3.Chorus

Bridge:
Dm C F
Gm C F
Dm C F Gm
Bb Gm A

repeat Chorus

Outro:
Bb Am Gm Dm F
Bb C C# Dm Em F Gm
F



Tabs

Intro:
|----------------------------------------------------------------------------------------------------|
|--------13----11-10----------13----11-10----------13----11-10----------13----11-10------------------|
|--10-10----10-------12-10-10----10-------12-10-10----10-------12-10-10----10-------12---------------|
|----------------------------------------------------------------------------------------------------|
|----------------------------------------------------------------------------------------------------|
|----------------------------------------------------------------------------------------------------|

|----------------------------------------------------------------------------------------------------|
|--------13----11-10----------13----11-10----------13----11-10---------------------------------------|
|--10-10----10-------12-10-10----10-------12-10-10----10-------12-10---------------------------------|
|----------------------------------------------------------------------------------------------------|
|----------------------------------------------------------------------------------------------------|
|----------------------------------------------------------------------------------------------------|

Chorus:

|----------------------------------------------------------------------------------------------------|
|--------13----11-10----------13----11-10----------13----11-10----------13----11-10------------------|
|--10-10----10-------12-10-10----10-------12-10-10----10-------12-10-10----10-------12---------------|
|----------------------------------------------------------------------------------------------------|
|----------------------------------------------------------------------------------------------------|
|----------------------------------------------------------------------------------------------------|

|----------------------------------------------------------------------------------------------------|
|--------13----11-10----------13----11-10----------13----11-10---------------------------------------|
|--10-10----10-------12-10-10----10-------12-10-10----10-------12-10-10-10-12-14---------------------|
|----------------------------------------------------------------------------------------------------|
|----------------------------------------------------------------------------------------------------|
|----------------------------------------------------------------------------------------------------|


|----------------------------------------------------------------------------------------------------|
|--------13----11-10----------13----11-10----------13----11-10----------13----11-10------------------|
|--10-10----10-------12-10-10----10-------12-10-10----10-------12-10-10----10-------12---------------|
|----------------------------------------------------------------------------------------------------|
|----------------------------------------------------------------------------------------------------|
|----------------------------------------------------------------------------------------------------|

|----------------------------------------------------------------------------------------------------|
|--------13----11-10----------13----11-10----------13----11-10---------------------------------------|
|--10-10----10-------12-10-10----10-------12-10-10----10-------12-10-10-10-12-14---------------------|
|----------------------------------------------------------------------------------------------------|
|----------------------------------------------------------------------------------------------------|
|----------------------------------------------------------------------------------------------------|

Back to top Go down

Re: Sakura Goodbye Guitar Chords and Tabs
Posted on Tue May 01, 2012 3:32 am


avrilsakura_05

Shiroten Performer
Shiroten Performer
You thanked this post! -
Thanks received by this post:

Message reputation : 100% (1 vote)

nice one! i've been looking for this. thanks so much XD


_________________________________________________________________________________________________


~Avrilsakura_05~
SCANDAL_Haruna-sama
Back to top Go down

Re: Sakura Goodbye Guitar Chords and Tabs
Posted on Tue May 01, 2012 3:02 pm


alexmontero08

Shiroten Performer
Shiroten Performer
no problem...


_________________________________________________________________________________________________


Every beat of drums, every strum of guitar, every slap of bass string, you form Music...
Back to top Go down