Taiyou SCANDALOUS [Chords]
Posted on Tue Jun 12, 2012 1:39 pm


tsunvun86

Indie Artist
Indie Artist
http://tsunvun86.wordpress.com/
You thanked this post! -
Thanks received by this post:

Message reputation : 100% (9 votes)

SCANDAL - Taiyou SCANDALOUS

Code:

Intro:
E
C#m E F#m A B G# (x2)
C#m G# C#m

Verse:
C#m B F# A B G# (x2)

Pre-Chorus:
A E B C#m B
A E B B
B G#

Chorus:
C#m E F#m F#m
B G#
C#m E A B G#
C#m G# C#m
A B
C#m C#m C#m

Instrumental:
C#m

Verse 2:
C#m B F# A B G#

repeat Pre-Chorus

Chorus 2:
C#m E F#m F#m
B G#
C#m E A B G#
C#m G# C#m
A B

Bridge:
C#m E A B    )
C#m E A F#m  } (x2)
C#m E A B
A B G#

Solo:
A B C#m B
A B C#m C#
B

repeat Pre-Chorus

G# (x4)

repeat Chorus

C#m B C#m
A B A G#

Outro:
C#m E F#m A B G# (x2)
C#m G# C#m

Transcribed by,
tsunvun86


_________________________________________________________________________________________________
Back to top Go down

Re: Taiyou SCANDALOUS [Chords]
Posted on Tue Jun 12, 2012 1:47 pm


DUL7

International Performer
International Performer
Wow.. that was fast! Thanks! Uh, could we perhaps see a cover soon? Ehem


_________________________________________________________________________________________________
Back to top Go down

Re: Taiyou SCANDALOUS [Chords]
Posted on Tue Jun 12, 2012 3:35 pm


bad-apple

International Performer
International Performer
So fast :O


_________________________________________________________________________________________________
"For us, the band is more like "life" to us than it is a "job." We're wonderful friends who are sharing life that only happens once." -Rina
Back to top Go down

Taiyou SCANDALOUS [Tabs Only]
Posted on Wed Jun 13, 2012 7:27 am


alexmontero08

Shiroten Performer
Shiroten Performer
woah, dude, that was fast...


_________________________________________________________________________________________________


Every beat of drums, every strum of guitar, every slap of bass string, you form Music...
Back to top Go down

Re: Taiyou SCANDALOUS [Chords]
Posted on Wed Jun 13, 2012 11:48 am


jigoku79

International Performer
International Performer
http://alinea-mind.blogspot.com/
With the helps from thoseguiltyeyes on lyrics, and tsunvun86 on the chords, I combine both into one. I also add some chord of my version. So, here's the chords with lyrics..Taiyou Scandalous D'oh!Wrong file, here's the correct ones, SCANDAL - Taiyou SCANDALous.
If the official lyrics has released, I'll change it soon..



Last edited by jigoku79 on Fri Jul 13, 2012 6:20 am; edited 2 times in total


_________________________________________________________________________________________________

http://alinea-mind.blogspot.com/

...経験って苦い
ものでしょう? (SCANDAL- Pride)
失敗しても、当たり前...成功した、男前...
Back to top Go down

Re: Taiyou SCANDALOUS [Chords]
Posted on Wed Jun 13, 2012 12:08 pm


Naomi

Indie Artist
Indie Artist
http://www.fanfiction.net/~naomi208


_________________________________________________________________________________________________



Back to top Go down

Re: Taiyou SCANDALOUS [Chords]
Posted on Wed Jun 13, 2012 1:34 pm


jona DJ

International Performer
International Performer
that's fast! fast like a cheetah
no no.... like the wind
no......... like the speed of sound
no no no, that's no, ARGH FORGET IT!


_________________________________________________________________________________________________


me: GENKI DESU~ Onion Shy

thinking about SCANDAL may cause extreme blushing, increasing heart beat rate, crazy actions, exhausted from jumping like a kid, unstoppable weird laughs, sudden excitement, and freaky things that you'll wish you had never done that
Back to top Go down

Re: Taiyou SCANDALOUS [Chords]
Posted on Sat Jun 16, 2012 11:18 pm


Fizhbone24

Indie Artist
Indie Artist
http://www.google.com/search?q=Fizhbone24
OMG! That's fast.
Thanks, you're the man, tsunvun! Hehee

And thanks to jigoku for the file! Really helps a lot! Hehee


_________________________________________________________________________________________________
Onion Tea
"Live a peaceful life is the best"

From me to you:
Back to top Go down

Re: Taiyou SCANDALOUS [Chords]
Posted on Tue Jun 19, 2012 6:02 am


Athenagiku

Caless Student
Caless Student
http://pinkyantigo.webs.com
whaaaa thanks arigatou gozaimasu!!! Clap

i was wondering if i could do an accoustic cover ..hmmm Balloon


_________________________________________________________________________________________________
Back to top Go down

Re: Taiyou SCANDALOUS [Chords]
Posted on Tue Jun 19, 2012 5:28 pm


dirinzuki

Caless Student
Caless Student
http://www.dirinzuki.blogspot.com
yata ... Arigatou Cool

I wanted this Dies

Back to top Go down

Re: Taiyou SCANDALOUS [Chords]
Posted on Thu Jul 12, 2012 8:26 am


jigoku79

International Performer
International Performer
http://alinea-mind.blogspot.com/
Here's the chord with official lyrics in pdf..SCANDAL - Taiyou SCANDALous..Enjoy! Happy


_________________________________________________________________________________________________

http://alinea-mind.blogspot.com/

...経験って苦い
ものでしょう? (SCANDAL- Pride)
失敗しても、当たり前...成功した、男前...
Back to top Go down

Re: Taiyou SCANDALOUS [Chords]
Posted on Fri Jul 13, 2012 5:30 am


kaishun

Mainstream Artist
Mainstream Artist
awesome that was fast

Back to top Go down

Re: Taiyou SCANDALOUS [Chords]
Posted on Sat Jul 14, 2012 1:04 pm


Rayz1995

Caless Student
Caless Student
Awesomeee, but the thing is... I don't know how to read chords, I know the notes on the guitar but I just don't know how to read chords... Can anyone be kind enough to teach me how to read it? T__T

Back to top Go down

Re: Taiyou SCANDALOUS [Chords]
Posted on Sat Jul 14, 2012 5:38 pm


Che817

Caless Student
Caless Student
Pretty fast... Happy


_________________________________________________________________________________________________
Back to top Go down

Re: Taiyou SCANDALOUS [Chords]
Posted on Sat Jul 14, 2012 9:03 pm


Superdry

Caless Student
Caless Student
Someone can please make a tab for this ? Tears of Joy
I have some probleme to read chords too ... sorry Wooden Plank

Back to top Go down

Re: Taiyou SCANDALOUS [Chords]
Posted on Sun Jul 15, 2012 6:02 pm


yuujin_21

Administrator
Administrator
The fingering for chords can easily be found in pretty much anywhere.Just google chord fingering.


_________________________________________________________________________________________________
"Bokaru HARUNA desu!"
"Gitaa MAMI desu!"
"Beesu TOMOMI desu!"
"Doraamusu RINA desu!"
Back to top Go down

Re: Taiyou SCANDALOUS [Chords]
Posted on Sat Jul 21, 2012 2:40 am


Andika

SPAMMER
SPAMMER
thanks for chord , Ho Onion

now i wanna try it Nerd

Back to top Go down

Re: Taiyou SCANDALOUS [Chords]
Posted on Thu Sep 27, 2012 9:19 am


Ninpan

Shiroten Performer
Shiroten Performer
YAY!!! thank you very much!

Back to top Go down

Re: Taiyou SCANDALOUS [Chords]
Posted on Fri Sep 28, 2012 2:15 pm


Rayz1995

Caless Student
Caless Student
These chords are played in the regular chords right? not in power chords?

Back to top Go down

Re: Taiyou SCANDALOUS [Chords]
Posted on Thu Feb 14, 2013 12:47 am


kudo_maharizu

Mainstream Artist
Mainstream Artist
http://stomachofchaos.com
My attempt at covering Taiyou Scandalous. It's a video on FB, but I think you may get to watch it as I have set the vid to 'public'. Tried putting it up on YouTube but the audio got deleted due to copyright issues -_-

きいてください。

http://www.facebook.com/video/embed?video_id=10152344745315274

Or try this one on Dailymotion:

http://www.dailymotion.com/video/xzq90v_iiiiiiiii-scandal-guitar-cover_webcam



Last edited by maharizm on Thu May 09, 2013 11:22 pm; edited 1 time in total

Back to top Go down

Re: Taiyou SCANDALOUS [Chords]
Posted on Thu Feb 14, 2013 12:51 am


kudo_maharizu

Mainstream Artist
Mainstream Artist
http://stomachofchaos.com
I'd like to add a short disclaimer (which I forgot to do!).

At 2:00 I messed up the chords, and replaced the audio from a separate take as I couldn't be bothered to make another video! Those of you who are eagle-eyed will notice this.

Anyway, hope you like it.

Back to top Go down

Re: Taiyou SCANDALOUS [Chords]
Posted on Thu Feb 14, 2013 5:31 am


Kris-

Shiroten Performer
Shiroten Performer
You thanked this post! -
Thanks received by this post:

Message reputation : 100% (1 vote)

wow nice cover ! can you share the tab for intro and solo part ?


_________________________________________________________________________________________________


Back to top Go down

Re: Taiyou SCANDALOUS [Chords]
Posted on Fri Feb 15, 2013 8:53 pm


kudo_maharizu

Mainstream Artist
Mainstream Artist
http://stomachofchaos.com
You thanked this post! -
Thanks received by this post:

Message reputation : 100% (1 vote)

Hi Kris

Sorry for the late reply. As requested, here is the tab for the intro and the solo.

I learnt the song by ear and of course if you have access to the official Queens Are Trumps tab book, that'll be way better.

Anyway, here goes. Yoroshiku onegaishimasu!!! ^ ^

Guitar in standard tuning (A-440Hz)

Intro:

Distorted tone with some echo

E ||--------------------------------------------|--------------------------------------------|
B ||--12----------------12--------------------|--12----------------12-------------------|
G ||------9---11---9---------9---11---9----|------9---11---9---------9---11---9----|
D ||--------------------------------------------|--------------------------------------------|
A ||--------------------------------------------|--------------------------------------------|
E ||--------------------------------------------|--------------------------------------------|

If you listen to Mami playing this live at the 2012 Inazuma Rock Fest, she played it throughout the nananananana bit at the start before "harukakanata atsui taiyou".

This is the little lick during "harukakanata atsui taiyou":

/ - slide
HB - half bend
H - hammer on
P - pull off
FB - full bend

E ||----------------------------------|---------------------------------------- ---|
B ||----------------------------------|--------------------9----9H10P---9-----|
G ||-----------9---11HB\11---9---|----------9---11--------------------------|
D ||----/11--------------------------|----11-------------------------------------|
A ||----------------------------------|--------------------------------------------|
E ||----------------------------------|--------------------------------------------|

And for the "Kanari sukyandarasu" bit, it's C#5 G#5 and this short phrase:

v - vibrato

E ||----------------------------------|
B ||----------------------------------|
G ||----------------------------------|
D ||----4----6----7----6-----4v----|
A ||----------------------------------|
E ||----------------------------------|

The solo simply comprises octave chords followed by a short lick:

E ||------------------------|--------------------------|
B ||------------------------|--------------------------|
G ||---11-----13----------|--11----16----13-------|
D ||----9------11---------|---9-----14----11-------|
A ||------------------------|--------------------------|
E ||------------------------|--------------------------|

E ||------------------------|--------------------------|
B ||------------------------|--------------------------|
G ||---11-----16------18-|---16----13---11----9--|
D ||----9------14-----16-|---14----11----9-----7--|
A ||------------------------|--------------------------|
E ||------------------------|--------------------------|

E ||------------------------|--------------------------|
B ||------------------------|--------------------------|
G ||---11-----13----------|--11----16----13-------|
D ||----9------11---------|---9-----14----11-------|
A ||------------------------|--------------------------|
E ||------------------------|--------------------------|

E ||-------------------------|-------------------------|
B ||-------------------------|-------------------------|
G ||---11FB\11--9-----9--|--11FB\11--9---------|
D ||------------------11-----|-----------------11----|
A ||--------------------------|------------------------|
E ||--------------------------|------------------------|

E ||----------------------------|
B ||----------12---------------|
G ||-----------------14v------|
D ||---13----------------------|
A ||----------------------------|
E ||----------------------------|

Hope this helps!

Back to top Go down

Re: Taiyou SCANDALOUS [Chords]
Posted on Fri Feb 15, 2013 9:01 pm


kudo_maharizu

Mainstream Artist
Mainstream Artist
http://stomachofchaos.com
Oops. A major boo boo in the solo tab. Here it is again!!!

The solo simply comprises octave chords followed by a short lick:

E ||------------------------|--------------------------|
B ||------------------------|--------------------------|
G ||----11-----13--------|---11----16----13-------|
D ||-----------------------|---------------------------|
A ||----9------11---------|---9-----14----11-------|
E ||------------------------|--------------------------|

E ||------------------------|--------------------------|
B ||------------------------|--------------------------|
G ||---11-----16------18-|---16----13---11----9--|
D ||------------------------|---------------------------|
A ||----9------14-----16--|---14----11----9----7--|
E ||------------------------|--------------------------|

E ||------------------------|--------------------------|
B ||------------------------|--------------------------|
G ||---11-----13----------|--11----16----13-------|
D ||------------------------|--------------------------|
A ||----9------11----------|---9----14----11-------|
E ||------------------------|--------------------------|

E ||-------------------------|-------------------------|
B ||-------------------------|-------------------------|
G ||---11FB\11--9-----9--|--11FB\11--9---------|
D ||------------------11-----|-----------------11----|
A ||--------------------------|------------------------|
E ||--------------------------|------------------------|

E ||----------------------------|
B ||----------12---------------|
G ||-----------------14v------|
D ||---13----------------------|
A ||----------------------------|
E ||----------------------------|

Back to top Go down

Re: Taiyou SCANDALOUS [Chords]
Posted on Sat Feb 16, 2013 5:58 am


Kris-

Shiroten Performer
Shiroten Performer
You thanked this post! -
Thanks received by this post:

Message reputation : 100% (1 vote)

Thanks alot , you are the man !


_________________________________________________________________________________________________


Back to top Go down