Re: Taiyou SCANDALOUS [Chords]
Posted on Sat Feb 16, 2013 6:38 am


kudo_maharizu

Mainstream Artist
Mainstream Artist
http://stomachofchaos.com
You are welcome, but before you sing praises, ONE more error noted in the tab.

(Yes, this is my first time doing tabs. Go figure)

And for the "Kanari sukyandarasu" bit, it's C#5 G#5 and this short phrase:

v - vibrato

E ||----------------------------------|
B ||----------------------------------|
G ||----------------------------------|
D ||----------------------------------|
A ||----4----6----7----6-----4v----|
E ||----------------------------------|

Done! Should be OK now. Hahahaha.

Back to top Go down

Re: Taiyou SCANDALOUS [Chords]
Posted on Sat Feb 16, 2013 10:29 am


Kris-

Shiroten Performer
Shiroten Performer
lol yeah, oh ya one more thing , can you tab the lick on 1:06 till 1:13 also ? is it the same lick happen on 3:39 till 3:46 ? thanks again !


_________________________________________________________________________________________________


Back to top Go down

Re: Taiyou SCANDALOUS [Chords]
Posted on Sat Feb 16, 2013 7:56 pm


kudo_maharizu

Mainstream Artist
Mainstream Artist
http://stomachofchaos.com
Hi Kris

Yes, it's same-ish except for the end bit:

E ||--------------------------------------------|--------------------------------------------|
B ||--12----------------12--------------------|--12----------------12-------------------|
G ||------9---11---9---------9---11---9----|------9---11---9---------9---11---9----|
D ||--------------------------------------------|--------------------------------------------|
A ||--------------------------------------------|--------------------------------------------|
E ||--------------------------------------------|--------------------------------------------|

E ||--------------12----11--------------------|--------------12----11--------------------|
B ||--12---12----------------12----12-------|--------12----------------12----12-----|
G ||--------------------------------------------|--------------------------------------------|
D ||--------------------------------------------|--------------------------------------------|
A ||--------------------------------------------|--------------------------------------------|
E ||--------------------------------------------|--------------------------------------------|

Hope this helps.

Back to top Go down

Re: Taiyou SCANDALOUS [Chords]
Posted on Tue Mar 05, 2013 12:48 pm


Scandalous

Shiroten Performer
Shiroten Performer
:D i got it thanks :D


_________________________________________________________________________________________________
Back to top Go down

Re: Taiyou SCANDALOUS [Chords]
Posted on Mon Jul 22, 2013 6:08 pm


Mitchan

International Performer
International Performer
http://www.wattpad.com/user/MitchanAnni
Exellent chords! Thanks tsunvun San Love


_________________________________________________________________________________________________

                 Tears of Joy
Back to top Go down

Re: Taiyou SCANDALOUS [Chords]
Posted on Mon Dec 23, 2013 11:23 am


hitokiri347

Caless Student
Caless Student
thank you   Nice One

Back to top Go down