Taiyou SCANDALOUS [Tabs Only]
Posted on Wed Jun 13, 2012 7:28 am


alexmontero08

Shiroten Performer
Shiroten Performer
Taiyou SCANDALOUS (guitar tabs only) by Alexander Montero(alexmontero08)
just paste all this text on a text document or in a spreadsheet.

____________________
|Legend: |
|(^)-------> bend up |
| |
|____________________|
Tabs:
(Intro)

|-------7--7----------7--7----------7--7---------------------------------------------------|
|-7--7---------7--7----------7--7----------------------------------------------------------|
|------------------------------------------------------------------------------------------|
|------------------------------------------------------------------------------------------|
|------------------------------------------------------------------------------------------|
|------------------------------------------------------------------------------------------|

(Solo)

|------------------------------------------------------------------------------------------|
|--7-7-7---9-9-9-9-9---7-7-7---12---9---7-7-7---12-12--14-14--12-12--9-9--7-7--5-5---------|
|------------------------------------------------------------------------------------------|
|--4-4-4---6-6-6-6-6---4-4-4---9----6---4-4-4---9--9---11-11--9--9---6-6--4-4--2-2---------|
|------------------------------------------------------------------------------------------|
|------------------------------------------------------------------------------------------|

|---------------------------------------------9---------------------7-5-5------------------|
|--7-7-7---9-9-9-9-9---7-7-7---12---9---7--9---------7--7^-----5-5-------------------------|
|------------------------------------------------6----------6------------------------------|
|--4-4-4---6-6-6-6-6---4-4-4---9----6------------------------------------------------------|
|------------------------------------------------------------------------------------------|
|------------------------------------------------------------------------------------------|

Transcribed by alexmontero08



Last edited by alexmontero08 on Thu Jun 14, 2012 2:25 am; edited 1 time in total


_________________________________________________________________________________________________


Every beat of drums, every strum of guitar, every slap of bass string, you form Music...
Back to top Go down

Re: Taiyou SCANDALOUS [Tabs Only]
Posted on Wed Jun 13, 2012 11:38 pm


Aosaru

International Performer
International Performer
Hehee The D< is back. If you want to get rid of the D< you can edit your post and check the box that says "Disable Smilies in this post".
Thanks for sharing the tabs!


_________________________________________________________________________________________________
Back to top Go down

Re: Taiyou SCANDALOUS [Tabs Only]
Posted on Thu Jun 14, 2012 2:25 am


alexmontero08

Shiroten Performer
Shiroten Performer
Aosaru wrote: The is back. If you want to get rid of the you can edit your post and check the box that says "Disable Smilies in this post".
Thanks for sharing the tabs!

i edited it.... thanks for that... =)


_________________________________________________________________________________________________


Every beat of drums, every strum of guitar, every slap of bass string, you form Music...
Back to top Go down

Re: Taiyou SCANDALOUS [Tabs Only]
Posted on Fri Jun 15, 2012 12:49 pm


alemicon

Indie Artist
Indie Artist
You sure work fast Nice One
Nice one UHUH!


_________________________________________________________________________________________________

Consciousness: That annoying time between naps. - by somebody on FFN





Back to top Go down

Re: Taiyou SCANDALOUS [Tabs Only]
Posted on Fri Jun 15, 2012 12:52 pm


alexmontero08

Shiroten Performer
Shiroten Performer
alemicon wrote:You sure work fast
Nice one


Thank you... =)


_________________________________________________________________________________________________


Every beat of drums, every strum of guitar, every slap of bass string, you form Music...
Back to top Go down

Re: Taiyou SCANDALOUS [Tabs Only]
Posted on Sun Jul 15, 2012 2:14 am


Rayz1995

Caless Student
Caless Student
Hey bro, thanks a bunch for the tabs but you think you can fully tab out the song for us one day? If you have the time for it I mean

Back to top Go down

Re: Taiyou SCANDALOUS [Tabs Only]
Posted on Sun Jul 15, 2012 3:04 am


Mari_Clairmeiid

International Performer
International Performer
Thanks for the tabs.....
Praise


_________________________________________________________________________________________________


Back to top Go down

Re: Taiyou SCANDALOUS [Tabs Only]
Posted on Sun Jul 22, 2012 4:25 pm


chanokun

Caless Student
Caless Student
YAY! GJ!! :>

Back to top Go down

Re: Taiyou SCANDALOUS [Tabs Only]
Posted on Sat Jul 28, 2012 12:08 pm


boobooli

Caless Student
Caless Student
good job bro
i like this solo

Back to top Go down

Re: Taiyou SCANDALOUS [Tabs Only]
Posted on Tue Jul 31, 2012 6:50 am


tazul@Dr.ze

Caless Student
Caless Student
http://tazulmohd@yahoo.com
thanks for the solo tab your are the best


_________________________________________________________________________________________________
Back to top Go down