Pin Heel Surfer - Guitar Tabs
Posted on Sun Sep 30, 2012 11:10 am


Jibba

Mainstream Artist
Mainstream Artist
http://www.youtube.com/user/xJibba?feature=mhee
You thanked this post! -
Thanks received by this post:

Message reputation : 100% (2 votes)



Paste into Notepad for best view
or visit my blog

Spoiler:
Pin Heel Surfer
SCANDAL

Pre-Intro Riff

-----------------------| -------------------------------------------
-----------------------| --------------------8--8--8---7-----7------
-----------------------| --------------------9--9--9---7-----7------
-----------------------| x 3 --------------------10-10-10--7-----7------
-----------------------| -------------------------------------------
-0-0-0-0--0-0-0--0--0--| -0-0-0-0--0-0-0----------------------------

Intro x 2

------------------------------------------------------------------------
----------------10-9----------------------------------------------------
-11--9--11--9-----------11--9--11--9------------------------------------
---------------------------------------11--9----------------------------
-9---7--9---7-----------9---7--9---7------------------------------------
------------------------------------------------------------------------

-----------------------------------------------------------------
----------------10-9------------8------7-------------------------
-11--9--11--9----------11--9----9------7-------------------------
--------------------------------10-----7-------------------------
-9---7--9---7----------9---7-------------------------------------
-----------------------------------------------------------------
(Play last two chords as intro second repeat)


Verse x 2

----------------------|-----------------------|-------------------------
----------------------|-----------------------|-------------------------
----------------------|-----------------------|-------------------------
----------------------|-----------------------|-------------------------
-7-7-7-7--7-7-7--7--7-|-7-7-7-7--7-7-7--7--7--|-2-2-2-2--2-2-2--2--2----
----------------------|-----------------------|-------------------------

----------------------|-----------------------|-------------------------
----------------------|-----------------------|-------------------------
----------------------|-----------------------|-------------------------
----------------------|-----------------------|-------------------------
-2-2-2-2--2-2-2--2--2-|-7-7-7-7--7-7-7--7--7--|-7-7-7-7--7-7-7--7--7----
----------------------|-----------------------|-------------------------

----------------------|-----------------------|-------------------------
----------------------|-----------------------|-------------------------
----------------------|-----------------------|-------------------------
----------------------|-----------------------|-------------------------
-6-6-6-6--6-6-6--6--6-|-7-7-7-7--7-7-7--7--7--|-------------------------
----------------------|-----------------------|-------------------------

Pre-Chorus

----------------------|-------------------------|-----------------------
----------------------|-------------------------|-----------------------
-7-7-7-7----9-9-9-9---|-11-11-11-11-14-14-14-14-|-8-8-8-8--9-9-9-9------
----------------------|-------------------------|-----------------------
-5-5-5-5----7-7-7-7---|-9--9--9--9--12-12-12-12-|-6-6-6-6--7-7-7-7------
----------------------|-------------------------|-----------------------

--------------------------|--5---5-----7---7----|-8---8---9----9----9---9--9---
--------------------------|---------------------|-----------10---10-----10-10--
-10-10-10-10--11-11-11-11-|----6---------8------|---9--------------------------
--------------------------|---------------------|------------------------------
-8--8--8--8---9--9--9--9--|---------------------|------------------------------
--------------------------|---------------------|------------------------------

Chorus
E B C#m G#

----------------------|-----------------------|-------------------------
-9///-------9///------|-9///-------9///-------|-------------------------
------9///-------9///-|------9///-------9///--|-------------------------
----------------------|-----------------------|--4--6--7--8--9--9-------
----------------------|-----------------------|-------------------------
----------------------|-----------------------|--2--4--5--6--7--7-------

Intro Repeat

Verse Repeat

Verse 2 Riff
--12--12///------------------------11--11///----------------------------
-------------12///---14///--12///------------12///--14///--12///--14----
------------------------------------------------------------------------
------------------------------------------------------------------------
------------------------------------------------------------------------
------------------------------------------------------------------------

------------------------------------------------------------------------
-14///---------------------13-------------------------------------------
-------13///-14///--14///-------14///--13///--11///--9///---------------
------------------------------------------------------------------------
------------------------------------------------------------------------
------------------------------------------------------------------------

Pre-chorus Repeat

Chorus Repeat

Interlude
C D (intro riff)
C D (intro riff)
C D Am
C D A

Pre-Chorus Repeat

Chorus Repeat (last line slighlty different E C#m)

Intro Repeat

Credits to jigoku79 for CHORDS
Peace Onion


_________________________________________________________________________________________________
Back to top Go down

Re: Pin Heel Surfer - Guitar Tabs
Posted on Fri Oct 19, 2012 10:12 am


Jibba

Mainstream Artist
Mainstream Artist
http://www.youtube.com/user/xJibba?feature=mhee
Video Cover on Nico
I've been kicked off Youtube again, if anyone would like to see the cover it's now on Nico Nico Douga.


_________________________________________________________________________________________________
Back to top Go down