Welcome Home [FULL] bass tab
Posted on Mon Dec 17, 2012 1:50 am


TomomiSlapThatBass

Caless Student
Caless Student
http://tomomi-slap-that-bass.tumblr.com
Welcome Home Bass Tab by TomomiSlapThatBass

This song was harder to learn than I thought it would be, I think I got a lot of parts wrong so I would appreciate everyones help on this one Tongue
Also the rhythm is a bit out so just listen to the song and it should make sense

Intro:
G|------------------------------------------------------------------------------------
D<-------------------------------------8-6--------------------------------------------
A|-----------------------------------------8-999999-111111h131313-9-88888888---------4
E|-22222222-44444444-11111111-6666-4/6---------------------------------------666-444--

Verse 1:
G|---------------------------------------------------------------------------------------------
D<---------------------------------------------------------------------------------------------
A|-4444444-9999999-131313131313-111111111111-999999-444444-999999------------------------------
E|-----------------------------------------------------------------666666-444444-222222-444444-

G|---------------------------------------------------------------------5h6p5-------------
D<------------------------------------8-6----------------------------6-------6-----------
A|-88--88---------------------------------8-----131313-66666666-686-----------888888-111-
E|--------666666-222222-444444---66---------666/-----------------------------------------

Chorus:
G|-----------------------------------------------------------------------------------------------------------------------
D<-----------------------------------------------------------------------------------------------------------66666-888888
A|-------------------------------------66666666-88888888-131313-121212-111111--8-11---8/999999-111111-998888-------------
E|-22222222-44444444-11111111-66666666----------------------------------------9----9-------------------------------------

G|----------------------------------------
D<----------------------------------------
A|-666666-888888-999999-11111111----------
E|-------6------8------9--------11--------

Intro (again):
G|------------------------------------------------------------------------------------
D<-------------------------------------8-6--------------------------------------------
A|-----------------------------------------8-999999-111111h131313-9-88888888---------4
E|-22222222-44444444-11111111-6666-4/6---------------------------------------666-444--

Verse 2:
G|---------------------------------------------------------------------------------------------
D<---------------------------------------------------------------------------------------------
A|-4444444-9999999-131313131313-111111111111-999999-444444-999999------------------------------
E|-----------------------------------------------------------------666666-444444-222222-444444-

G|---------------------------------------------------------------------5h6p5-------------
D<-----------------------------------8-6-----------------------------6-------6-----------
A|-88--88--------------------------------8--------------66666666-686-----------888888-111
E|--------666666-222222-444444---66--------666666666666----------------------------------

Chorus:
G|-----------------------------------------------------------------------------------------------------------------------
D<-----------------------------------------------------------------------------------------------------------66666-888888
A|-------------------------------------66666666-88888888-131313-121212-111111--8-11---8/999999-111111-998888-------------
E|-22222222-44444444-11111111-66666666----------------------------------------9----9-------------------------------------

G|----------------------------------------
D<----------------------------------------
A|-666666-888888-999999-11111111----------
E|-------6------8------9--------11--------

Solo:
G|--------------------------------------------------------------------------------------
D<--------------------------------------------------------------------------------------
A|-------------------------------------4/-66666666-88888888-131313-121212-111111---8-11-
E|-22222222-44444444-11111111-66666666--------------------------------------------9----9

Part after solo:
G|---------------------------------------------------------------------------------------------------
D<---------------------------------------------------------------------------------------------------
A|-88-88-888888888---------------6666666-8888888-9999999----------------------------11----/1111111111
E|----------------666666-4444444-------------------------6666666-444444444444444444------------------

Chorus:
G|-----------------------------------------------------------------------------------------------------------------------
D<-----------------------------------------------------------------------------------------------------------66666-888888
A|-------------------------------------66666666-88888888-131313-121212-111111--8-11---8/999999-111111-998888-------------
E|-22222222-44444444-11111111-66666666----------------------------------------9----9-------------------------------------

G|----------------------------------------
D<----------------------------------------
A|-666666-888888-999999-11111111----------
E|-------6------8------9--------11--------

Intro (again but I guess it is an outro now Tongue):
G|------------------------------------------------------------------------------------
D<-------------------------------------8-6--------------------------------------------
A|-----------------------------------------8-999999-111111h131313-9-88888888---------4
E|-22222222-44444444-11111111-6666-4/6---------------------------------------666-444--


_________________________________________________________________________________________________
http://tomomi-slap-that-bass.tumblr.com/
Back to top Go down