SAKURA Goodbye bass tabs
Posted on Fri Apr 02, 2010 9:45 am


Aosaru

International Performer
International Performer
I found these at:
http://forum.jphip.com/index.php?PHPSESSID=cavf9m5v1471qol7a2trim4en3&topic=21474.20
The credit goes to boykun from the website above. He says they aren't complete but I hope this helps someone out here.

Note: Paste into notepad.

Sakura Goodbye bass tab

Intro
Bb A G F
G -----------------------------------------------------------------------------------------------------------------------------------
D -----------------------------------------------------------------------------------------------------------------------------------
A -------------------------------------------------7-8-8-8-8-8-5---------------------------------3-4-5-5-5-5-5-6-7-8---8-------------
E -6-6-6-6-6-6-6-6-6-6-8-8-10-10-6-6-5-5-5-5-5-6-8---------------8-5-3-3-3-3-3-3-3-3-3-3-3-3-3-3-------------------------1-1-3-3-5-5-
Bb A G F
G -------------------------------------------------------------------------------------------------------------------------------------
D -----------------------------------------------------------------------------------5---5/7-5-----------------------------------------
A -------------------------------------------------------------3-------------------5---5---------5-5-----------------------------------
E -6-6-6-6-6-6-6-6-6-6-8-8-10-10-6-6-5-5-5-5-5-5-5-5-5-5-5-5-5---5-4-3-3-3-3-3-3-3-------------------0-1-1-1-1-1-1-1-1-1-1-3-3-5-5-1-1-


Verse
Bb F
G ---------------10-10---------------10-10-----------------12-12------------------12-12-
D -----10-10-8-8-----------10-10-8-8-----------12-12-10-10------------12-12-10-10-------
A -8-8-----------------8-8-----------------8-8--------------------8-8-------------------
E --------------------------------------------------------------------------------------
G F
G -----------------10-10------------------10-10------------------12-12-----------------12-12-
D -------10-10-8-8--------------10-10-8-8------------12-12-10-10-----------12-12-10-10-------
A -10-10------------------10-10------------------8-8-------------------8-8-------------------
E -------------------------------------------------------------------------------------------


Interlude/Break
Bb A G F
G -----------------------------------------------------------------------------------------------------------------------------------
D -----------------------------------------------------------------------------------------------------------------------------------
A -------------------------------------------------------------3---------------------------------------------------------------------
E -6-6-6-6-6-6-6-6-6-6-8-8-10-10-6-6-5-5-5-5-5-5-5-5-5-5-5-5-5---5-4-3-3-3-3-3-3-3-3-3-3-3-3-3-3-3-3-1-1-1-1-1-1-1-1-1-1-3-3-5-5-1-1-


Chorus
Bb A G F
G ---------------------------------------------------------------------------------------------------------------------------------
D ---------------------7h8-----7h8---------------------------------------------------------5-5-------------------------------------
A ---------------------------------------------5/7-8-8---------------------------------5-5-----5-5---------------------------------
E -6-6-6-6-6-6-6-6-6-6-----6-6-----5-5-5-5-5-5---------8-8-5-5-1-1-3-3-3-3-3-3-3-3-3-3-------------1-1-1-1-1-1-1-1-1-1-3-3-5-5-1-1-
Bb A G F
G -----------------------------------------------------------------------------------------------------------------------------------
D -----------8-7h8---------------------------7-5h7---------------------------------5---5-----------2-3-3-3-3-3-3-3-------------------
A -------------------------5-5---------------------5-5-7-7-8-8-------------------5---5----------/5-----------------3---3-------------
E -6-6-6-6-6-------6-6-8-8-----6-6-5-5-5-5-5-------------------8-8-3-3-3-3-3-3-3---------3-------------------------------1-1-3-3-5-5-

The song is structured like so,
Intro
Verse x2
Interlude/Break
Verse
Chorus
Interlude/Break
Verse x2
Chorus
Bridge
Chorus
Outro

Back to top Go down

Re: SAKURA Goodbye bass tabs
Posted on Sun Apr 04, 2010 12:45 am


amanekaoru

Caless Student
Caless Student
hi! thanks for uploading the tabs ..

hard to find in the net though good thing I joined this forum Clap

Back to top Go down

Re: SAKURA Goodbye bass tabs
Posted on Fri Oct 01, 2010 4:25 pm


sonic0313

Shiroten Performer
Shiroten Performer
Thanks for the tab. I like the bass line on this song. it's catchy.

Back to top Go down